  0
SECTION
  2
HEADER
  9
$ACADVER
  1
AC1015
  9
$ACADMAINTVER
 70
     6
  9
$DWGCODEPAGE
  3
ANSI_1254
  9
$INSBASE
 10
0.0
 20
0.0
 30
0.0
  9
$EXTMIN
 10
0.0
 20
0.0
 30
0.0
  9
$EXTMAX
 10
279.4
 20
215.9
 30
0.0
  9
$LIMMIN
 10
0.0
 20
0.0
  9
$LIMMAX
 10
279.4
 20
215.9
  9
$ORTHOMODE
 70
     0
  9
$REGENMODE
 70
     1
  9
$FILLMODE
 70
     1
  9
$QTEXTMODE
 70
     0
  9
$MIRRTEXT
 70
     1
  9
$LTSCALE
 40
1.0
  9
$ATTMODE
 70
     1
  9
$TEXTSIZE
 40
3.5
  9
$TRACEWID
 40
1.0
  9
$TEXTSTYLE
  7
Standard
  9
$CLAYER
  8
0
  9
$CELTYPE
  6
ByLayer
  9
$CECOLOR
 62
   256
  9
$CELTSCALE
 40
1.0
  9
$DISPSILH
 70
     0
  9
$DIMSCALE
 40
1.0
  9
$DIMASZ
 40
3.5
  9
$DIMEXO
 40
1.0
  9
$DIMDLI
 40
3.75
  9
$DIMRND
 40
0.0
  9
$DIMDLE
 40
0.0
  9
$DIMEXE
 40
1.0
  9
$DIMTP
 40
0.0
  9
$DIMTM
 40
0.0
  9
$DIMTXT
 40
3.5
  9
$DIMCEN
 40
2.5
  9
$DIMTSZ
 40
0.0
  9
$DIMTOL
 70
     0
  9
$DIMLIM
 70
     0
  9
$DIMTIH
 70
     1
  9
$DIMTOH
 70
     1
  9
$DIMSE1
 70
     0
  9
$DIMSE2
 70
     0
  9
$DIMTAD
 70
     1
  9
$DIMZIN
 70
     0
  9
$DIMBLK
  1

  9
$DIMASO
 70
     1
  9
$DIMSHO
 70
     1
  9
$DIMPOST
  1

  9
$DIMAPOST
  1

  9
$DIMALT
 70
     0
  9
$DIMALTD
 70
     3
  9
$DIMALTF
 40
0.0393700787
  9
$DIMLFAC
 40
1.0
  9
$DIMTOFL
 70
     1
  9
$DIMTVP
 40
0.0
  9
$DIMTIX
 70
     0
  9
$DIMSOXD
 70
     0
  9
$DIMSAH
 70
     0
  9
$DIMBLK1
  1

  9
$DIMBLK2
  1

  9
$DIMSTYLE
  2
ISO-25
  9
$DIMCLRD
 70
     0
  9
$DIMCLRE
 70
     0
  9
$DIMCLRT
 70
     0
  9
$DIMTFAC
 40
1.0
  9
$DIMGAP
 40
1.524
  9
$DIMJUST
 70
     0
  9
$DIMSD1
 70
     0
  9
$DIMSD2
 70
     0
  9
$DIMTOLJ
 70
     0
  9
$DIMTZIN
 70
     0
  9
$DIMALTZ
 70
     0
  9
$DIMALTTZ
 70
     0
  9
$DIMUPT
 70
     0
  9
$DIMDEC
 70
     2
  9
$DIMTDEC
 70
     2
  9
$DIMALTU
 70
     2
  9
$DIMALTTD
 70
     3
  9
$DIMTXSTY
  7
Standard
  9
$DIMAUNIT
 70
     0
  9
$DIMADEC
 70
     2
  9
$DIMALTRND
 40
0.0
  9
$DIMAZIN
 70
     0
  9
$DIMDSEP
 70
    44
  9
$DIMATFIT
 70
     3
  9
$DIMFRAC
 70
     0
  9
$DIMLDRBLK
  1

  9
$DIMLUNIT
 70
     2
  9
$DIMLWD
 70
    -2
  9
$DIMLWE
 70
    -2
  9
$DIMTMOVE
 70
     0
  9
$LUNITS
 70
     2
  9
$LUPREC
 70
     2
  9
$SKETCHINC
 40
1.0
  9
$FILLETRAD
 40
10.0
  9
$AUNITS
 70
     0
  9
$AUPREC
 70
     2
  9
$MENU
  1
.
  9
$ELEVATION
 40
0.0
  9
$PELEVATION
 40
0.0
  9
$THICKNESS
 40
0.0
  9
$LIMCHECK
 70
     0
  9
$CHAMFERA
 40
0.0
  9
$CHAMFERB
 40
0.0
  9
$CHAMFERC
 40
0.0
  9
$CHAMFERD
 40
0.0
  9
$SKPOLY
 70
     0
  9
$TDCREATE
 40
2460346.670842963
  9
$TDUCREATE
 40
2460346.545842963
  9
$TDUPDATE
 40
2460346.670843148
  9
$TDUUPDATE
 40
2460346.545843148
  9
$TDINDWG
 40
0.0000000116
  9
$TDUSRTIMER
 40
0.0000000116
  9
$USRTIMER
 70
     1
  9
$ANGBASE
 50
0.0
  9
$ANGDIR
 70
     0
  9
$PDMODE
 70
     0
  9
$PDSIZE
 40
-1.0
  9
$PLINEWID
 40
0.0
  9
$SPLFRAME
 70
     0
  9
$SPLINETYPE
 70
     6
  9
$SPLINESEGS
 70
     8
  9
$HANDSEED
  5
129
  9
$SURFTAB1
 70
     6
  9
$SURFTAB2
 70
     6
  9
$SURFTYPE
 70
     6
  9
$SURFU
 70
     6
  9
$SURFV
 70
     6
  9
$UCSBASE
  2

  9
$UCSNAME
  2

  9
$UCSORG
 10
0.0
 20
0.0
 30
0.0
  9
$UCSXDIR
 10
1.0
 20
0.0
 30
0.0
  9
$UCSYDIR
 10
0.0
 20
1.0
 30
0.0
  9
$UCSORTHOREF
  2

  9
$UCSORTHOVIEW
 70
     0
  9
$UCSORGTOP
 10
0.0
 20
0.0
 30
0.0
  9
$UCSORGBOTTOM
 10
0.0
 20
0.0
 30
0.0
  9
$UCSORGLEFT
 10
0.0
 20
0.0
 30
0.0
  9
$UCSORGRIGHT
 10
0.0
 20
0.0
 30
0.0
  9
$UCSORGFRONT
 10
0.0
 20
0.0
 30
0.0
  9
$UCSORGBACK
 10
0.0
 20
0.0
 30
0.0
  9
$PUCSBASE
  2

  9
$PUCSNAME
  2

  9
$PUCSORG
 10
0.0
 20
0.0
 30
0.0
  9
$PUCSXDIR
 10
1.0
 20
0.0
 30
0.0
  9
$PUCSYDIR
 10
0.0
 20
1.0
 30
0.0
  9
$PUCSORTHOREF
  2

  9
$PUCSORTHOVIEW
 70
     0
  9
$PUCSORGTOP
 10
0.0
 20
0.0
 30
0.0
  9
$PUCSORGBOTTOM
 10
0.0
 20
0.0
 30
0.0
  9
$PUCSORGLEFT
 10
0.0
 20
0.0
 30
0.0
  9
$PUCSORGRIGHT
 10
0.0
 20
0.0
 30
0.0
  9
$PUCSORGFRONT
 10
0.0
 20
0.0
 30
0.0
  9
$PUCSORGBACK
 10
0.0
 20
0.0
 30
0.0
  9
$USERI1
 70
     0
  9
$USERI2
 70
     0
  9
$USERI3
 70
     0
  9
$USERI4
 70
     0
  9
$USERI5
 70
     0
  9
$USERR1
 40
0.0
  9
$USERR2
 40
0.0
  9
$USERR3
 40
0.0
  9
$USERR4
 40
0.0
  9
$USERR5
 40
0.0
  9
$WORLDVIEW
 70
     1
  9
$SHADEDGE
 70
     3
  9
$SHADEDIF
 70
    70
  9
$TILEMODE
 70
     1
  9
$MAXACTVP
 70
    64
  9
$PINSBASE
 10
0.0
 20
0.0
 30
0.0
  9
$PLIMCHECK
 70
     0
  9
$PEXTMIN
 10
1.0000000000E+20
 20
1.0000000000E+20
 30
1.0000000000E+20
  9
$PEXTMAX
 10
-1.0000000000E+20
 20
-1.0000000000E+20
 30
-1.0000000000E+20
  9
$PLIMMIN
 10
0.0
 20
0.0
  9
$PLIMMAX
 10
420.0
 20
297.0
  9
$UNITMODE
 70
     0
  9
$VISRETAIN
 70
     1
  9
$PLINEGEN
 70
     0
  9
$PSLTSCALE
 70
     1
  9
$TREEDEPTH
 70
  3020
  9
$CMLSTYLE
  2
Standard
  9
$CMLJUST
 70
     0
  9
$CMLSCALE
 40
20.0
  9
$PROXYGRAPHICS
 70
     1
  9
$MEASUREMENT
 70
     1
  9
$CELWEIGHT
370
    -1
  9
$ENDCAPS
280
     0
  9
$JOINSTYLE
280
     0
  9
$LWDISPLAY
290
     1
  9
$INSUNITS
 70
     4
  9
$HYPERLINKBASE
  1

  9
$STYLESHEET
  1

  9
$XEDIT
290
     1
  9
$CEPSNTYPE
380
     0
  9
$PSTYLEMODE
290
     1
  9
$FINGERPRINTGUID
  2
{826e535a-6ebc-4950-baad-b2d73471c0b9}
  9
$VERSIONGUID
  2
{FAEB1C32-E019-11D5-929B-00C0DF256EC4}
  9
$EXTNAMES
290
     1
  9
$PSVPSCALE
 40
0.0
  9
$OLESTARTUP
290
     0
  0
ENDSEC
  0
SECTION
  2
CLASSES
  0
CLASS
  1
ACDBDICTIONARYWDFLT
  2
AcDbDictionaryWithDefault
  3
ObjectDBX Classes
 90
        0
280
     0
281
     0
  0
CLASS
  1
VISUALSTYLE
  2
AcDbVisualStyle
  3
ObjectDBX Classes
 90
     4095
280
     0
281
     0
  0
CLASS
  1
MATERIAL
  2
AcDbMaterial
  3
ObjectDBX Classes
 90
     1153
280
     0
281
     0
  0
CLASS
  1
SCALE
  2
AcDbScale
  3
ObjectDBX Classes
 90
     1153
280
     0
281
     0
  0
CLASS
  1
TABLESTYLE
  2
AcDbTableStyle
  3
ObjectDBX Classes
 90
     4095
280
     0
281
     0
  0
CLASS
  1
MLEADERSTYLE
  2
AcDbMLeaderStyle
  3
ACDB_MLEADERSTYLE_CLASS
 90
     4095
280
     0
281
     0
  0
CLASS
  1
SUN
  2
AcDbSun
  3
SCENEOE
 90
     1153
280
     0
281
     0
  0
CLASS
  1
ACDBPLACEHOLDER
  2
AcDbPlaceHolder
  3
ObjectDBX Classes
 90
        0
280
     0
281
     0
  0
CLASS
  1
LAYOUT
  2
AcDbLayout
  3
ObjectDBX Classes
 90
        0
280
     0
281
     0
  0
ENDSEC
  0
SECTION
  2
TABLES
  0
TABLE
  2
VPORT
  5
8
330
0
100
AcDbSymbolTable
 70
     1
  0
VPORT
  5
29
330
8
100
AcDbSymbolTableRecord
100
AcDbViewportTableRecord
  2
*Active
 70
     0
 10
0.0
 20
0.0
 11
1.0
 21
1.0
 12
139.7
 22
107.95
 13
0.0
 23
0.0
 14
10.0
 24
10.0
 15
10.0
 25
10.0
 16
0.0
 26
0.0
 36
1.0
 17
0.0
 27
0.0
 37
0.0
 40
215.9
 41
1.2941176471
 42
50.0
 43
0.0
 44
0.0
 50
0.0
 51
0.0
 71
     0
 72
  2000
 73
     1
 74
     3
 75
     0
 76
     0
 77
     0
 78
     0
281
     0
 65
     1
110
0.0
120
0.0
130
0.0
111
1.0
121
0.0
131
0.0
112
0.0
122
1.0
132
0.0
 79
     0
146
0.0
  0
ENDTAB
  0
TABLE
  2
LTYPE
  5
5
330
0
100
AcDbSymbolTable
 70
     6
  0
LTYPE
  5
14
330
5
100
AcDbSymbolTableRecord
100
AcDbLinetypeTableRecord
  2
ByBlock
 70
     0
  3

 72
    65
 73
     0
 40
0.0
  0
LTYPE
  5
15
330
5
100
AcDbSymbolTableRecord
100
AcDbLinetypeTableRecord
  2
ByLayer
 70
     0
  3

 72
    65
 73
     0
 40
0.0
  0
LTYPE
  5
16
330
5
100
AcDbSymbolTableRecord
100
AcDbLinetypeTableRecord
  2
Continuous
 70
     0
  3
Solid line
 72
    65
 73
     0
 40
0.0
  0
LTYPE
  5
6E
330
5
100
AcDbSymbolTableRecord
100
AcDbLinetypeTableRecord
  2
HIDDEN
 70
     0
  3
Hidden __ __ __ __ __ __ __ __ __ __ __ __ __ __
 72
    65
 73
     2
 40
1.905
 49
1.27
 74
     0
 49
-0.635
 74
     0
  0
LTYPE
  5
6F
330
5
100
AcDbSymbolTableRecord
100
AcDbLinetypeTableRecord
  2
PHANTOM
 70
     0
  3
Phantom ______  __  __  ______  __  __  ______
 72
    65
 73
     6
 40
12.7
 49
6.35
 74
     0
 49
-1.27
 74
     0
 49
1.27
 74
     0
 49
-1.27
 74
     0
 49
1.27
 74
     0
 49
-1.27
 74
     0
  0
LTYPE
  5
70
330
5
100
AcDbSymbolTableRecord
100
AcDbLinetypeTableRecord
  2
CENTER
 70
     0
  3
Center ____ _ ____ _ ____ _ ____ _ ____ _ ____
 72
    65
 73
     4
 40
10.16
 49
6.35
 74
     0
 49
-1.27
 74
     0
 49
1.27
 74
     0
 49
-1.27
 74
     0
  0
LTYPE
  5
71
330
5
100
AcDbSymbolTableRecord
100
AcDbLinetypeTableRecord
  2
CENTERX2
 70
     0
  3
Center (2x) ________  __  ________  __  _____
 72
    65
 73
     4
 40
20.32
 49
12.7
 74
     0
 49
-2.54
 74
     0
 49
2.54
 74
     0
 49
-2.54
 74
     0
  0
LTYPE
  5
72
330
5
100
AcDbSymbolTableRecord
100
AcDbLinetypeTableRecord
  2
DOT2
 70
     0
  3
Dot (.5x) ........................................
 72
    65
 73
     2
 40
0.635
 49
0.0
 74
     0
 49
-0.635
 74
     0
  0
ENDTAB
  0
TABLE
  2
LAYER
  5
2
330
0
100
AcDbSymbolTable
 70
    17
  0
LAYER
  5
10
330
2
100
AcDbSymbolTableRecord
100
AcDbLayerTableRecord
  2
0
 70
     0
 62
     7
  6
Continuous
370
    -3
390
F
  0
LAYER
  5
73
330
2
100
AcDbSymbolTableRecord
100
AcDbLayerTableRecord
  2
FORMAT
 70
     0
 62
     7
  6
Continuous
370
    -3
390
F
  0
LAYER
  5
74
330
2
100
AcDbSymbolTableRecord
100
AcDbLayerTableRecord
  2
YARDIMCI_GEOMETRI
 70
     0
 62
    -6
  6
Continuous
290
     0
370
    -3
390
F
  0
LAYER
  5
75
330
2
100
AcDbSymbolTableRecord
100
AcDbLayerTableRecord
  2
SAYFA_CERCEVESI
 70
     0
 62
     7
  6
Continuous
370
    25
390
F
  0
LAYER
  5
76
330
2
100
AcDbSymbolTableRecord
100
AcDbLayerTableRecord
  2
ANTET
 70
     0
 62
     7
  6
Continuous
370
    -3
390
F
  0
LAYER
  5
77
330
2
100
AcDbSymbolTableRecord
100
AcDbLayerTableRecord
  2
OLCU
 70
     0
 62
   150
  6
Continuous
370
    -3
390
F
  0
LAYER
  5
78
330
2
100
AcDbSymbolTableRecord
100
AcDbLayerTableRecord
  2
METIN
 70
     0
 62
    96
  6
Continuous
370
    -3
390
F
  0
LAYER
  5
79
330
2
100
AcDbSymbolTableRecord
100
AcDbLayerTableRecord
  2
BALON
 70
     0
 62
     5
  6
Continuous
370
    -3
390
F
  0
LAYER
  5
7A
330
2
100
AcDbSymbolTableRecord
100
AcDbLayerTableRecord
  2
VURGU
 70
     0
 62
     7
  6
Continuous
370
    -3
390
F
  0
LAYER
  5
7B
330
2
100
AcDbSymbolTableRecord
100
AcDbLayerTableRecord
  2
SILIK
 70
     0
 62
     7
  6
Continuous
370
    -3
390
F
  0
LAYER
  5
7C
330
2
100
AcDbSymbolTableRecord
100
AcDbLayerTableRecord
  2
MODEL
 70
     0
 62
     7
  6
Continuous
370
    -3
390
F
  0
LAYER
  5
7D
330
2
100
AcDbSymbolTableRecord
100
AcDbLayerTableRecord
  2
DETAYLANDıRMA
 70
     0
 62
   190
  6
Continuous
370
    -3
390
F
  0
LAYER
  5
7E
330
2
100
AcDbSymbolTableRecord
100
AcDbLayerTableRecord
  2
TOLERANS
 70
     0
 62
   230
  6
Continuous
370
    -3
390
F
  0
LAYER
  5
7F
330
2
100
AcDbSymbolTableRecord
100
AcDbLayerTableRecord
  2
MERKEZ_CIZGILERI
 70
     0
 62
    30
  6
Continuous
370
    -3
390
F
  0
LAYER
  5
80
330
2
100
AcDbSymbolTableRecord
100
AcDbLayerTableRecord
  2
KESIT-DETAY_CIZGILERI
 70
     0
 62
     7
  6
Continuous
370
    -3
390
F
  0
LAYER
  5
81
330
2
100
AcDbSymbolTableRecord
100
AcDbLayerTableRecord
  2
\U+041E\U+0421\U+0415\U+0412\U+042B\U+0415
 70
     0
 62
     7
  6
Continuous
370
    -3
390
F
  0
LAYER
  5
82
330
2
100
AcDbSymbolTableRecord
100
AcDbLayerTableRecord
  2
\U+0412\U+041E\U+0414\U+042F\U+041D\U+042B\U+0415_\U+0417\U+041D\U+0410\U+041A\U+0418
 70
     0
 62
    11
  6
Continuous
370
    -3
390
F
  0
ENDTAB
  0
TABLE
  2
STYLE
  5
3
330
0
100
AcDbSymbolTable
 70
     1
  0
STYLE
  5
11
330
3
100
AcDbSymbolTableRecord
100
AcDbTextStyleTableRecord
  2
Standard
 70
     0
 40
0.0
 41
1.0
 50
0.0
 71
     0
 42
3.5
  3
txt
  4

  0
ENDTAB
  0
TABLE
  2
VIEW
  5
6
330
0
100
AcDbSymbolTable
 70
     0
  0
ENDTAB
  0
TABLE
  2
UCS
  5
7
330
0
100
AcDbSymbolTable
 70
     0
  0
ENDTAB
  0
TABLE
  2
APPID
  5
9
330
0
100
AcDbSymbolTable
 70
     1
  0
APPID
  5
12
330
9
100
AcDbSymbolTableRecord
100
AcDbRegAppTableRecord
  2
ACAD
 70
     0
  0
ENDTAB
  0
TABLE
  2
DIMSTYLE
  5
A
330
0
100
AcDbSymbolTable
 70
     1
100
AcDbDimStyleTable
  0
DIMSTYLE
105
27
330
A
100
AcDbSymbolTableRecord
100
AcDbDimStyleTableRecord
  2
ISO-25
 70
     0
 41
2.5
 42
0.625
 43
3.75
 44
1.25
 73
     0
 74
     0
 77
     1
 78
     8
140
2.5
141
2.5
143
0.0393700787
147
0.625
171
     3
172
     1
178
     0
271
     2
272
     2
274
     3
278
    44
283
     0
284
     8
340
11
  0
ENDTAB
  0
TABLE
  2
BLOCK_RECORD
  5
1
330
0
100
AcDbSymbolTable
 70
     4
  0
BLOCK_RECORD
  5
1F
330
1
100
AcDbSymbolTableRecord
100
AcDbBlockTableRecord
  2
*Model_Space
340
22
  0
BLOCK_RECORD
  5
1B
330
1
100
AcDbSymbolTableRecord
100
AcDbBlockTableRecord
  2
*Paper_Space
340
1E
  0
BLOCK_RECORD
  5
23
330
1
100
AcDbSymbolTableRecord
100
AcDbBlockTableRecord
  2
*Paper_Space0
340
26
  0
BLOCK_RECORD
  5
8C
330
1
100
AcDbSymbolTableRecord
100
AcDbBlockTableRecord
  2
SW_CENTERMARKSYMBOL_0
340
0
102
{BLKREFS
331
97
102
}
  0
BLOCK_RECORD
  5
C6
330
1
100
AcDbSymbolTableRecord
100
AcDbBlockTableRecord
  2
SW_CENTERMARKSYMBOL_1
340
0
102
{BLKREFS
331
D1
102
}
  0
BLOCK_RECORD
  5
D2
330
1
100
AcDbSymbolTableRecord
100
AcDbBlockTableRecord
  2
SW_CENTERMARKSYMBOL_2
340
0
102
{BLKREFS
331
DD
102
}
  0
ENDTAB
  0
ENDSEC
  0
SECTION
  2
BLOCKS
  0
BLOCK
  5
20
330
1F
100
AcDbEntity
  8
0
100
AcDbBlockBegin
  2
*Model_Space
 70
     0
 10
0.0
 20
0.0
 30
0.0
  3
*Model_Space
  1

  0
ENDBLK
  5
21
330
1F
100
AcDbEntity
  8
0
100
AcDbBlockEnd
  0
BLOCK
  5
1C
330
1B
100
AcDbEntity
 67
     1
  8
0
100
AcDbBlockBegin
  2
*Paper_Space
 70
     0
 10
0.0
 20
0.0
 30
0.0
  3
*Paper_Space
  1

  0
ENDBLK
  5
1D
330
1B
100
AcDbEntity
 67
     1
  8
0
100
AcDbBlockEnd
  0
BLOCK
  5
24
330
23
100
AcDbEntity
  8
0
100
AcDbBlockBegin
  2
*Paper_Space0
 70
     0
 10
0.0
 20
0.0
 30
0.0
  3
*Paper_Space0
  1

  0
ENDBLK
  5
25
330
23
100
AcDbEntity
  8
0
100
AcDbBlockEnd
  0
BLOCK
  5
8D
330
8C
100
AcDbEntity
  8
0
100
AcDbBlockBegin
  2
SW_CENTERMARKSYMBOL_0
 70
     0
 10
0.0
 20
0.0
 30
0.0
  3
SW_CENTERMARKSYMBOL_0
  1

  0
LINE
  5
8F
330
8C
100
AcDbEntity
  8
FORMAT
 62
     0
100
AcDbLine
 10
0.0
 20
0.0
 30
0.0
 11
0.0
 21
2.5
 31
0.0
  0
LINE
  5
90
330
8C
100
AcDbEntity
  8
FORMAT
 62
     0
100
AcDbLine
 10
0.0
 20
0.0
 30
0.0
 11
-2.5
 21
0.0
 31
0.0
  0
LINE
  5
91
330
8C
100
AcDbEntity
  8
FORMAT
 62
     0
100
AcDbLine
 10
0.0
 20
0.0
 30
0.0
 11
0.0
 21
-2.5
 31
0.0
  0
LINE
  5
92
330
8C
100
AcDbEntity
  8
FORMAT
 62
     0
100
AcDbLine
 10
0.0
 20
0.0
 30
0.0
 11
2.5
 21
0.0
 31
0.0
  0
LINE
  5
93
330
8C
100
AcDbEntity
  8
FORMAT
 62
     0
100
AcDbLine
 10
0.0
 20
5.0
 30
0.0
 11
0.0
 21
102.5
 31
0.0
  0
LINE
  5
94
330
8C
100
AcDbEntity
  8
FORMAT
 62
     0
100
AcDbLine
 10
-5.0
 20
0.0
 30
0.0
 11
-102.5
 21
0.0
 31
0.0
  0
LINE
  5
95
330
8C
100
AcDbEntity
  8
FORMAT
 62
     0
100
AcDbLine
 10
0.0
 20
-5.0
 30
0.0
 11
0.0
 21
-102.5
 31
0.0
  0
LINE
  5
96
330
8C
100
AcDbEntity
  8
FORMAT
 62
     0
100
AcDbLine
 10
5.0
 20
0.0
 30
0.0
 11
102.5
 21
0.0
 31
0.0
  0
ENDBLK
  5
8E
330
8C
100
AcDbEntity
  8
0
100
AcDbBlockEnd
  0
BLOCK
  5
C7
330
C6
100
AcDbEntity
  8
0
100
AcDbBlockBegin
  2
SW_CENTERMARKSYMBOL_1
 70
     0
 10
0.0
 20
0.0
 30
0.0
  3
SW_CENTERMARKSYMBOL_1
  1

  0
LINE
  5
C9
330
C6
100
AcDbEntity
  8
FORMAT
 62
     0
100
AcDbLine
 10
0.0
 20
0.0
 30
0.0
 11
0.0
 21
2.5
 31
0.0
  0
LINE
  5
CA
330
C6
100
AcDbEntity
  8
FORMAT
 62
     0
100
AcDbLine
 10
0.0
 20
0.0
 30
0.0
 11
-2.5
 21
0.0
 31
0.0
  0
LINE
  5
CB
330
C6
100
AcDbEntity
  8
FORMAT
 62
     0
100
AcDbLine
 10
0.0
 20
0.0
 30
0.0
 11
0.0
 21
-2.5
 31
0.0
  0
LINE
  5
CC
330
C6
100
AcDbEntity
  8
FORMAT
 62
     0
100
AcDbLine
 10
0.0
 20
0.0
 30
0.0
 11
2.5
 21
0.0
 31
0.0
  0
LINE
  5
CD
330
C6
100
AcDbEntity
  8
FORMAT
 62
     0
100
AcDbLine
 10
0.0
 20
5.0
 30
0.0
 11
0.0
 21
9.5
 31
0.0
  0
LINE
  5
CE
330
C6
100
AcDbEntity
  8
FORMAT
 62
     0
100
AcDbLine
 10
-5.0
 20
0.0
 30
0.0
 11
-9.5
 21
0.0
 31
0.0
  0
LINE
  5
CF
330
C6
100
AcDbEntity
  8
FORMAT
 62
     0
100
AcDbLine
 10
0.0
 20
-5.0
 30
0.0
 11
0.0
 21
-9.5
 31
0.0
  0
LINE
  5
D0
330
C6
100
AcDbEntity
  8
FORMAT
 62
     0
100
AcDbLine
 10
5.0
 20
0.0
 30
0.0
 11
9.5
 21
0.0
 31
0.0
  0
ENDBLK
  5
C8
330
C6
100
AcDbEntity
  8
0
100
AcDbBlockEnd
  0
BLOCK
  5
D3
330
D2
100
AcDbEntity
  8
0
100
AcDbBlockBegin
  2
SW_CENTERMARKSYMBOL_2
 70
     0
 10
0.0
 20
0.0
 30
0.0
  3
SW_CENTERMARKSYMBOL_2
  1

  0
LINE
  5
D5
330
D2
100
AcDbEntity
  8
FORMAT
 62
     0
100
AcDbLine
 10
0.0
 20
0.0
 30
0.0
 11
0.0
 21
2.5
 31
0.0
  0
LINE
  5
D6
330
D2
100
AcDbEntity
  8
FORMAT
 62
     0
100
AcDbLine
 10
0.0
 20
0.0
 30
0.0
 11
-2.5
 21
0.0
 31
0.0
  0
LINE
  5
D7
330
D2
100
AcDbEntity
  8
FORMAT
 62
     0
100
AcDbLine
 10
0.0
 20
0.0
 30
0.0
 11
0.0
 21
-2.5
 31
0.0
  0
LINE
  5
D8
330
D2
100
AcDbEntity
  8
FORMAT
 62
     0
100
AcDbLine
 10
0.0
 20
0.0
 30
0.0
 11
2.5
 21
0.0
 31
0.0
  0
LINE
  5
D9
330
D2
100
AcDbEntity
  8
FORMAT
 62
     0
100
AcDbLine
 10
0.0
 20
5.0
 30
0.0
 11
0.0
 21
9.5
 31
0.0
  0
LINE
  5
DA
330
D2
100
AcDbEntity
  8
FORMAT
 62
     0
100
AcDbLine
 10
-5.0
 20
0.0
 30
0.0
 11
-9.5
 21
0.0
 31
0.0
  0
LINE
  5
DB
330
D2
100
AcDbEntity
  8
FORMAT
 62
     0
100
AcDbLine
 10
0.0
 20
-5.0
 30
0.0
 11
0.0
 21
-9.5
 31
0.0
  0
LINE
  5
DC
330
D2
100
AcDbEntity
  8
FORMAT
 62
     0
100
AcDbLine
 10
5.0
 20
0.0
 30
0.0
 11
9.5
 21
0.0
 31
0.0
  0
ENDBLK
  5
D4
330
D2
100
AcDbEntity
  8
0
100
AcDbBlockEnd
  0
ENDSEC
  0
SECTION
  2
ENTITIES
  0
LINE
  5
83
330
1F
100
AcDbEntity
  8
0
  6
Continuous
 62
     7
370
    25
100
AcDbLine
 10
129.1701403815
 20
17.9145293606
 30
0.0
 11
129.1701403815
 21
4.6754170122
 31
0.0
  0
LINE
  5
84
330
1F
100
AcDbEntity
  8
0
  6
Continuous
 62
     7
370
    25
100
AcDbLine
 10
143.1701403815
 20
4.6754170122
 30
0.0
 11
143.1701403815
 21
17.920181307
 31
0.0
  0
CIRCLE
  5
85
330
1F
100
AcDbEntity
  8
0
  6
Continuous
 62
     7
370
    25
100
AcDbCircle
 10
136.1701403815
 20
117.6754170122
 30
0.0
 40
100.0
  0
CIRCLE
  5
86
330
1F
100
AcDbEntity
  8
0
  6
Continuous
 62
     7
370
    25
100
AcDbCircle
 10
136.1701403815
 20
117.6754170122
 30
0.0
 40
79.99999999999999
  0
LINE
  5
87
330
1F
100
AcDbEntity
  8
0
  6
Continuous
 62
     7
370
    25
100
AcDbLine
 10
136.1701403815
 20
4.6754170122
 30
0.0
 11
143.1701403815
 21
4.6754170122
 31
0.0
  0
LINE
  5
88
330
1F
100
AcDbEntity
  8
0
  6
Continuous
 62
     7
370
    25
100
AcDbLine
 10
129.1701403815
 20
4.6754170122
 30
0.0
 11
136.1701403815
 21
4.6754170122
 31
0.0
  0
CIRCLE
  5
89
330
1F
100
AcDbEntity
  8
0
  6
Continuous
 62
     7
370
    25
100
AcDbCircle
 10
136.1701403815
 20
117.6754170122
 30
0.0
 40
78.79583521899005
  0
CIRCLE
  5
8A
330
1F
100
AcDbEntity
  8
0
  6
Continuous
 62
     7
370
    25
100
AcDbCircle
 10
136.1701403815
 20
117.6754170122
 30
0.0
 40
46.20416478100994
  0
CIRCLE
  5
8B
330
1F
100
AcDbEntity
  8
0
  6
Continuous
 62
     7
370
    25
100
AcDbCircle
 10
136.1701403815
 20
117.6754170122
 30
0.0
 40
45.0
  0
INSERT
  5
97
330
1F
100
AcDbEntity
  8
FORMAT
 62
     7
100
AcDbBlockReference
  2
SW_CENTERMARKSYMBOL_0
 10
136.1701403815
 20
117.6754170122
 30
0.0
  0
LINE
  5
98
330
1F
100
AcDbEntity
  8
0
  6
Continuous
 62
     7
370
    25
100
AcDbLine
 10
-104.1871280802
 20
217.6754170122
 30
0.0
 11
-201.8745741085
 21
217.6754170122
 31
0.0
  0
LINE
  5
99
330
1F
100
AcDbEntity
  8
0
  6
Continuous
 62
     7
370
    25
100
AcDbLine
 10
-186.9608870177
 20
17.6754170122
 30
0.0
 11
-104.1871280802
 21
17.6754170122
 31
0.0
  0
LINE
  5
9A
330
1F
100
AcDbEntity
  8
0
  6
Continuous
 62
     7
370
    25
100
AcDbLine
 10
-201.8745741085
 20
17.6754170122
 30
0.0
 11
-200.8745741085
 21
17.6754170122
 31
0.0
  0
ARC
  5
9B
330
1F
100
AcDbEntity
  8
0
  6
Continuous
 62
     7
370
    25
100
AcDbCircle
 10
-104.1871280802
 20
215.6754170122
 30
0.0
 40
2.000000000000028
100
AcDbArc
 50
23.448062578
 51
90.0
  0
ARC
  5
9C
330
1F
100
AcDbEntity
  8
0
  6
Continuous
 62
     7
370
    25
100
AcDbCircle
 10
-104.1871280802
 20
19.6754170122
 30
0.0
 40
2.000000000000017
100
AcDbArc
 50
270.0
 51
336.551937422
  0
LINE
  5
9D
330
1F
100
AcDbEntity
  8
0
  6
Continuous
 62
     7
370
    25
100
AcDbLine
 10
-102.3522857697
 20
18.8795817932
 30
0.0
 11
-85.3968624472
 21
57.9712522312
 31
0.0
  0
LINE
  5
9E
330
1F
100
AcDbEntity
  8
0
  6
Continuous
 62
     7
370
    25
100
AcDbLine
 10
-85.3968624472
 20
177.3795817932
 30
0.0
 11
-102.3522857697
 21
216.4712522312
 31
0.0
  0
ARC
  5
9F
330
1F
100
AcDbEntity
  8
0
  6
Continuous
 62
     7
370
    25
100
AcDbCircle
 10
-83.5620201368
 20
178.1754170122
 30
0.0
 40
2.0
100
AcDbArc
 50
203.448062578
 51
270.0
  0
ARC
  5
A0
330
1F
100
AcDbEntity
  8
0
  6
Continuous
 62
     7
370
    25
100
AcDbCircle
 10
-83.5620201368
 20
57.1754170122
 30
0.0
 40
2.0
100
AcDbArc
 50
90.0
 51
156.551937422
  0
LINE
  5
A1
330
1F
100
AcDbEntity
  8
0
  6
Continuous
 62
     7
370
    25
100
AcDbLine
 10
-9.8745741085
 20
176.1754170122
 30
0.0
 11
-83.5620201368
 21
176.1754170122
 31
0.0
  0
LINE
  5
A2
330
1F
100
AcDbEntity
  8
0
  6
Continuous
 62
     7
370
    25
100
AcDbLine
 10
-10.9624134357
 20
59.1754170122
 30
0.0
 11
-9.8745741085
 21
59.1754170122
 31
0.0
  0
LINE
  5
A3
330
1F
100
AcDbEntity
  8
0
  6
Continuous
 62
     7
370
    25
100
AcDbLine
 10
-83.5620201368
 20
59.1754170122
 30
0.0
 11
-24.8745741085
 21
59.1754170122
 31
0.0
  0
LINE
  5
A4
330
1F
100
AcDbEntity
  8
0
  6
Continuous
 62
     7
370
    25
100
AcDbLine
 10
-24.8745741085
 20
59.1754170122
 30
0.0
 11
-24.8745741085
 21
47.6754170122
 31
0.0
  0
LINE
  5
A5
330
1F
100
AcDbEntity
  8
0
  6
Continuous
 62
     7
370
    25
100
AcDbLine
 10
-10.8745741085
 20
47.6754170122
 30
0.0
 11
-10.8745741085
 21
59.1754170122
 31
0.0
  0
LINE
  5
A6
330
1F
100
AcDbEntity
  8
0
  6
Continuous
 62
     7
370
    25
100
AcDbLine
 10
-200.8745741085
 20
17.6754170122
 30
0.0
 11
-200.8745741085
 21
4.6754170122
 31
0.0
  0
LINE
  5
A7
330
1F
100
AcDbEntity
  8
0
  6
Continuous
 62
     7
370
    25
100
AcDbLine
 10
-186.8745741085
 20
4.6754170122
 30
0.0
 11
-186.8745741085
 21
17.6754170122
 31
0.0
  0
LINE
  5
A8
330
1F
100
AcDbEntity
  8
0
  6
Continuous
 62
     7
370
    25
100
AcDbLine
 10
-201.8745741085
 20
217.6754170122
 30
0.0
 11
-201.8745741085
 21
17.6754170122
 31
0.0
  0
ARC
  5
A9
330
1F
100
AcDbEntity
  8
0
  6
Continuous
 62
     7
370
    25
100
AcDbCircle
 10
-193.8747880979
 20
-82.1897158333
 30
0.0
 40
100.1101481491358
100
AcDbArc
 50
86.039832667
 51
94.00944075
  0
ARC
  5
AA
330
1F
100
AcDbEntity
  8
0
  6
Continuous
 62
     7
370
    25
100
AcDbCircle
 10
-17.8748687077
 20
0.8994803762
 30
0.0
 40
58.6948095362787
100
AcDbArc
 50
83.2366115431
 51
96.8491634248
  0
LINE
  5
AB
330
1F
100
AcDbEntity
  8
0
  6
Continuous
 62
     7
370
    25
100
AcDbLine
 10
-9.8745741085
 20
176.1754170122
 30
0.0
 11
-9.8745741085
 21
59.1754170122
 31
0.0
  0
LINE
  5
AC
330
1F
100
AcDbEntity
  8
0
  6
Continuous
 62
     7
370
    25
100
AcDbLine
 10
-24.8745741085
 20
47.6754170122
 30
0.0
 11
-10.8745741085
 21
47.6754170122
 31
0.0
  0
LINE
  5
AD
330
1F
100
AcDbEntity
  8
0
  6
Continuous
 62
     7
370
    25
100
AcDbLine
 10
-200.8745741085
 20
4.6754170122
 30
0.0
 11
-186.8745741085
 21
4.6754170122
 31
0.0
  0
LINE
  5
AE
330
1F
100
AcDbEntity
  8
0
  6
Continuous
 62
     1
370
    25
100
AcDbLine
 10
-104.1871280802
 20
217.6754170122
 30
0.0
 11
-104.1871280802
 21
17.6754170122
 31
0.0
  0
LINE
  5
AF
330
1F
100
AcDbEntity
  8
0
  6
Continuous
 62
     1
370
    25
100
AcDbLine
 10
-102.3522857697
 20
216.4712522312
 30
0.0
 11
-102.3522857697
 21
18.8795817932
 31
0.0
  0
LINE
  5
B0
330
1F
100
AcDbEntity
  8
0
  6
Continuous
 62
     1
370
    25
100
AcDbLine
 10
-85.3968624472
 20
177.3795817932
 30
0.0
 11
-85.3968624472
 21
57.9712522312
 31
0.0
  0
LINE
  5
B1
330
1F
100
AcDbEntity
  8
0
  6
Continuous
 62
     1
370
    25
100
AcDbLine
 10
-83.5620201368
 20
176.1754170122
 30
0.0
 11
-83.5620201368
 21
59.1754170122
 31
0.0
  0
ARC
  5
B2
330
1F
100
AcDbEntity
  8
0
  6
Continuous
 62
     7
370
    25
100
AcDbCircle
 10
234.1701403815
 20
372.1497395916
 30
0.0
 40
2.00000000000002
100
AcDbArc
 50
293.448062578
 51
0.0
  0
ARC
  5
B3
330
1F
100
AcDbEntity
  8
0
  6
Continuous
 62
     7
370
    25
100
AcDbCircle
 10
38.1701403815
 20
372.1497395916
 30
0.0
 40
2.000000000000021
100
AcDbArc
 50
180.0
 51
246.551937422
  0
LINE
  5
B4
330
1F
100
AcDbEntity
  8
0
  6
Continuous
 62
     7
370
    25
100
AcDbLine
 10
236.1701403815
 20
372.1497395916
 30
0.0
 11
236.1701403815
 21
469.8371856199
 31
0.0
  0
LINE
  5
B5
330
1F
100
AcDbEntity
  8
0
  6
Continuous
 62
     7
370
    25
100
AcDbLine
 10
36.1701403815
 20
469.8371856199
 30
0.0
 11
36.1701403815
 21
372.1497395916
 31
0.0
  0
LINE
  5
B6
330
1F
100
AcDbEntity
  8
0
  6
Continuous
 62
     7
370
    25
100
AcDbLine
 10
37.3743051625
 20
370.3148972811
 30
0.0
 11
76.4659756005
 21
353.3594739586
 31
0.0
  0
LINE
  5
B7
330
1F
100
AcDbEntity
  8
0
  6
Continuous
 62
     7
370
    25
100
AcDbLine
 10
195.8743051625
 20
353.3594739586
 30
0.0
 11
234.9659756005
 21
370.3148972811
 31
0.0
  0
ARC
  5
B8
330
1F
100
AcDbEntity
  8
0
  6
Continuous
 62
     7
370
    25
100
AcDbCircle
 10
196.6701403815
 20
351.5246316482
 30
0.0
 40
2.00000000000002
100
AcDbArc
 50
113.448062578
 51
180.0
  0
ARC
  5
B9
330
1F
100
AcDbEntity
  8
0
  6
Continuous
 62
     7
370
    25
100
AcDbCircle
 10
75.6701403815
 20
351.5246316482
 30
0.0
 40
2.00000000000002
100
AcDbArc
 50
0.0
 51
66.551937422
  0
LINE
  5
BA
330
1F
100
AcDbEntity
  8
0
  6
Continuous
 62
     7
370
    25
100
AcDbLine
 10
194.6701403815
 20
277.8371856199
 30
0.0
 11
194.6701403815
 21
351.5246316482
 31
0.0
  0
LINE
  5
BB
330
1F
100
AcDbEntity
  8
0
  6
Continuous
 62
     7
370
    25
100
AcDbLine
 10
77.6701403815
 20
351.5246316482
 30
0.0
 11
77.6701403815
 21
277.8371856199
 31
0.0
  0
CIRCLE
  5
BC
330
1F
100
AcDbEntity
  8
0
  6
Continuous
 62
     7
370
    25
100
AcDbCircle
 10
136.1701403815
 20
461.8371856199
 30
0.0
 40
7.0
  0
CIRCLE
  5
BD
330
1F
100
AcDbEntity
  8
0
  6
Continuous
 62
     7
370
    25
100
AcDbCircle
 10
136.1701403815
 20
461.8371856199
 30
0.0
 40
5.0
  0
LINE
  5
BE
330
1F
100
AcDbEntity
  8
0
  6
Continuous
 62
     7
370
    25
100
AcDbLine
 10
236.1701403815
 20
469.8371856199
 30
0.0
 11
36.1701403815
 21
469.8371856199
 31
0.0
  0
CIRCLE
  5
BF
330
1F
100
AcDbEntity
  8
0
  6
Continuous
 62
     7
370
    25
100
AcDbCircle
 10
136.1701403815
 20
285.8371856199
 30
0.0
 40
5.0
  0
CIRCLE
  5
C0
330
1F
100
AcDbEntity
  8
0
  6
Continuous
 62
     7
370
    25
100
AcDbCircle
 10
136.1701403815
 20
285.8371856199
 30
0.0
 40
7.0
  0
LINE
  5
C1
330
1F
100
AcDbEntity
  8
0
  6
Continuous
 62
     7
370
    25
100
AcDbLine
 10
194.6701403815
 20
277.8371856199
 30
0.0
 11
77.6701403815
 21
277.8371856199
 31
0.0
  0
LINE
  5
C2
330
1F
100
AcDbEntity
  8
0
  6
Continuous
 62
     1
370
    25
100
AcDbLine
 10
234.9659756005
 20
370.3148972811
 30
0.0
 11
37.3743051625
 21
370.3148972811
 31
0.0
  0
LINE
  5
C3
330
1F
100
AcDbEntity
  8
0
  6
Continuous
 62
     1
370
    25
100
AcDbLine
 10
236.1701403815
 20
372.1497395916
 30
0.0
 11
36.1701403815
 21
372.1497395916
 31
0.0
  0
LINE
  5
C4
330
1F
100
AcDbEntity
  8
0
  6
Continuous
 62
     1
370
    25
100
AcDbLine
 10
195.8743051625
 20
353.3594739586
 30
0.0
 11
76.4659756005
 21
353.3594739586
 31
0.0
  0
LINE
  5
C5
330
1F
100
AcDbEntity
  8
0
  6
Continuous
 62
     1
370
    25
100
AcDbLine
 10
194.6701403815
 20
351.5246316482
 30
0.0
 11
77.6701403815
 21
351.5246316482
 31
0.0
  0
INSERT
  5
D1
330
1F
100
AcDbEntity
  8
FORMAT
 62
     7
100
AcDbBlockReference
  2
SW_CENTERMARKSYMBOL_1
 10
136.1701403815
 20
285.8371856199
 30
0.0
  0
INSERT
  5
DD
330
1F
100
AcDbEntity
  8
FORMAT
 62
     7
100
AcDbBlockReference
  2
SW_CENTERMARKSYMBOL_2
 10
136.1701403815
 20
461.8371856199
 30
0.0
  0
LINE
  5
DE
330
1F
100
AcDbEntity
  8
0
  6
Continuous
 62
     7
370
    25
100
AcDbLine
 10
448.462907545
 20
17.6754170122
 30
0.0
 11
449.462907545
 21
17.6754170122
 31
0.0
  0
LINE
  5
DF
330
1F
100
AcDbEntity
  8
0
  6
Continuous
 62
     7
370
    25
100
AcDbLine
 10
351.7754615167
 20
17.6754170122
 30
0.0
 11
434.5492204543
 21
17.6754170122
 31
0.0
  0
LINE
  5
E0
330
1F
100
AcDbEntity
  8
0
  6
Continuous
 62
     7
370
    25
100
AcDbLine
 10
449.462907545
 20
217.6754170122
 30
0.0
 11
351.7754615167
 21
217.6754170122
 31
0.0
  0
ARC
  5
E1
330
1F
100
AcDbEntity
  8
0
  6
Continuous
 62
     7
370
    25
100
AcDbCircle
 10
351.7754615167
 20
19.6754170122
 30
0.0
 40
2.000000000000017
100
AcDbArc
 50
203.448062578
 51
270.0
  0
ARC
  5
E2
330
1F
100
AcDbEntity
  8
0
  6
Continuous
 62
     7
370
    25
100
AcDbCircle
 10
351.7754615167
 20
215.6754170122
 30
0.0
 40
2.000000000000028
100
AcDbArc
 50
90.0
 51
156.551937422
  0
LINE
  5
E3
330
1F
100
AcDbEntity
  8
0
  6
Continuous
 62
     7
370
    25
100
AcDbLine
 10
349.9406192063
 20
216.4712522312
 30
0.0
 11
332.9851958838
 21
177.3795817932
 31
0.0
  0
LINE
  5
E4
330
1F
100
AcDbEntity
  8
0
  6
Continuous
 62
     7
370
    25
100
AcDbLine
 10
332.9851958838
 20
57.9712522312
 30
0.0
 11
349.9406192063
 21
18.8795817932
 31
0.0
  0
ARC
  5
E5
330
1F
100
AcDbEntity
  8
0
  6
Continuous
 62
     7
370
    25
100
AcDbCircle
 10
331.1503535733
 20
57.1754170122
 30
0.0
 40
2.000000000000017
100
AcDbArc
 50
23.448062578
 51
90.0
  0
ARC
  5
E6
330
1F
100
AcDbEntity
  8
0
  6
Continuous
 62
     7
370
    25
100
AcDbCircle
 10
331.1503535733
 20
178.1754170122
 30
0.0
 40
2.00000000000002
100
AcDbArc
 50
270.0
 51
336.551937422
  0
LINE
  5
E7
330
1F
100
AcDbEntity
  8
0
  6
Continuous
 62
     7
370
    25
100
AcDbLine
 10
272.462907545
 20
59.1754170122
 30
0.0
 11
331.1503535733
 21
59.1754170122
 31
0.0
  0
LINE
  5
E8
330
1F
100
AcDbEntity
  8
0
  6
Continuous
 62
     7
370
    25
100
AcDbLine
 10
257.462907545
 20
59.1754170122
 30
0.0
 11
258.5507468723
 21
59.1754170122
 31
0.0
  0
LINE
  5
E9
330
1F
100
AcDbEntity
  8
0
  6
Continuous
 62
     7
370
    25
100
AcDbLine
 10
331.1503535733
 20
176.1754170122
 30
0.0
 11
257.462907545
 21
176.1754170122
 31
0.0
  0
LINE
  5
EA
330
1F
100
AcDbEntity
  8
0
  6
Continuous
 62
     7
370
    25
100
AcDbLine
 10
258.462907545
 20
59.1857989222
 30
0.0
 11
258.462907545
 21
47.6754170122
 31
0.0
  0
LINE
  5
EB
330
1F
100
AcDbEntity
  8
0
  6
Continuous
 62
     7
370
    25
100
AcDbLine
 10
272.462907545
 20
47.6754170122
 30
0.0
 11
272.462907545
 21
59.1754170122
 31
0.0
  0
LINE
  5
EC
330
1F
100
AcDbEntity
  8
0
  6
Continuous
 62
     7
370
    25
100
AcDbLine
 10
434.462907545
 20
17.6813779361
 30
0.0
 11
434.462907545
 21
4.6754170122
 31
0.0
  0
LINE
  5
ED
330
1F
100
AcDbEntity
  8
0
  6
Continuous
 62
     7
370
    25
100
AcDbLine
 10
448.462907545
 20
4.6754170122
 30
0.0
 11
448.462907545
 21
17.6754170122
 31
0.0
  0
LINE
  5
EE
330
1F
100
AcDbEntity
  8
0
  6
Continuous
 62
     7
370
    25
100
AcDbLine
 10
449.462907545
 20
117.6754170122
 30
0.0
 11
449.462907545
 21
217.6754170122
 31
0.0
  0
LINE
  5
EF
330
1F
100
AcDbEntity
  8
0
  6
Continuous
 62
     7
370
    25
100
AcDbLine
 10
449.462907545
 20
17.6754170122
 30
0.0
 11
449.462907545
 21
117.6754170122
 31
0.0
  0
SPLINE
  5
F0
330
1F
100
AcDbEntity
  8
0
  6
Continuous
 62
     7
370
    25
100
AcDbSpline
210
0.0
220
0.0
230
1.0
 70
     8
 71
     3
 72
    17
 73
    13
 74
     0
 42
0.00000001
 43
0.00000001
 40
0.0
 40
0.0
 40
0.0
 40
0.0
 40
0.1071918252503055
 40
0.2143773237147175
 40
0.3217271633489979
 40
0.4291857689881288
 40
0.536465212876965
 40
0.6435571181397256
 40
0.7507457704688578
 40
0.8581642492566991
 40
0.9655874820899967
 40
1.0
 40
1.0
 40
1.0
 40
1.0
 10
448.4629075450428
 20
17.67541701223781
 30
0.0
 10
448.3857057956109
 20
17.68097476096507
 30
0.0
 10
448.231306853428
 20
17.69208993038446
 30
0.0
 10
447.0279529166741
 20
17.76939412181683
 30
0.0
 10
445.2542293489803
 20
17.85548401272458
 30
0.0
 10
443.036830111397
 20
17.91755640568767
 30
0.0
 10
440.6460737659974
 20
17.92683786878899
 30
0.0
 10
438.3528001294631
 20
17.88009958459034
 30
0.0
 10
436.3943564841258
 20
17.79655496150226
 30
0.0
 10
435.0595132552402
 20
17.71721110025802
 30
0.0
 10
434.4246802409192
 20
17.6727768781529
 30
0.0
 10
434.5249039468943
 20
17.67971615813788
 30
0.0
 10
434.5492204542545
 20
17.68139978229831
 30
0.0
  0
SPLINE
  5
F1
330
1F
100
AcDbEntity
  8
0
  6
Continuous
 62
     7
370
    25
100
AcDbSpline
210
0.0
220
0.0
230
1.0
 70
     8
 71
     3
 72
    17
 73
    13
 74
     0
 42
0.00000001
 43
0.00000001
 40
0.0
 40
0.0
 40
0.0
 40
0.0
 40
0.1068504461700554
 40
0.2136826540088685
 40
0.3209894062584943
 40
0.4286206099676699
 40
0.5357313383137428
 40
0.6422880144763499
 40
0.749121359141338
 40
0.8566284990561477
 40
0.9641599511372193
 40
1.0
 40
1.0
 40
1.0
 40
1.0
 10
272.4629075450428
 20
59.17541701223782
 30
0.0
 10
272.3860766740773
 20
59.18486767826931
 30
0.0
 10
272.2324280464284
 20
59.20376739719558
 30
0.0
 10
271.0353714800485
 20
59.33538482055909
 30
0.0
 10
269.2680312893223
 20
59.48278664678029
 30
0.0
 10
267.0528949434527
 20
59.58986002855683
 30
0.0
 10
264.6646303207171
 20
59.60642283015358
 30
0.0
 10
262.3765378966754
 20
59.52715694585821
 30
0.0
 10
260.4186616659219
 20
59.3848599140326
 30
0.0
 10
259.0740915625547
 20
59.24853115828223
 30
0.0
 10
258.4292569265487
 20
59.17144489474616
 30
0.0
 10
258.526450415953
 20
59.18295368305351
 30
0.0
 10
258.5507468722673
 20
59.18583065325031
 30
0.0
  0
LINE
  5
F2
330
1F
100
AcDbEntity
  8
0
  6
Continuous
 62
     7
370
    25
100
AcDbLine
 10
257.462907545
 20
117.6754170122
 30
0.0
 11
257.462907545
 21
176.1754170122
 31
0.0
  0
LINE
  5
F3
330
1F
100
AcDbEntity
  8
0
  6
Continuous
 62
     7
370
    25
100
AcDbLine
 10
257.462907545
 20
59.1754170122
 30
0.0
 11
257.462907545
 21
117.6754170122
 31
0.0
  0
LINE
  5
F4
330
1F
100
AcDbEntity
  8
0
  6
Continuous
 62
     7
370
    25
100
AcDbLine
 10
258.462907545
 20
47.6754170122
 30
0.0
 11
272.462907545
 21
47.6754170122
 31
0.0
  0
LINE
  5
F5
330
1F
100
AcDbEntity
  8
0
  6
Continuous
 62
     7
370
    25
100
AcDbLine
 10
434.462907545
 20
4.6754170122
 30
0.0
 11
448.462907545
 21
4.6754170122
 31
0.0
  0
LINE
  5
F6
330
1F
100
AcDbEntity
  8
0
  6
Continuous
 62
     1
370
    25
100
AcDbLine
 10
351.7754615167
 20
117.6754170122
 30
0.0
 11
351.7754615167
 21
217.6754170122
 31
0.0
  0
LINE
  5
F7
330
1F
100
AcDbEntity
  8
0
  6
Continuous
 62
     1
370
    25
100
AcDbLine
 10
351.7754615167
 20
17.6754170122
 30
0.0
 11
351.7754615167
 21
117.6754170122
 31
0.0
  0
LINE
  5
F8
330
1F
100
AcDbEntity
  8
0
  6
Continuous
 62
     1
370
    25
100
AcDbLine
 10
349.9406192063
 20
117.6754170122
 30
0.0
 11
349.9406192063
 21
216.4712522312
 31
0.0
  0
LINE
  5
F9
330
1F
100
AcDbEntity
  8
0
  6
Continuous
 62
     1
370
    25
100
AcDbLine
 10
349.9406192063
 20
18.8795817932
 30
0.0
 11
349.9406192063
 21
117.6754170122
 31
0.0
  0
LINE
  5
FA
330
1F
100
AcDbEntity
  8
0
  6
Continuous
 62
     1
370
    25
100
AcDbLine
 10
332.9851958838
 20
117.6754170122
 30
0.0
 11
332.9851958838
 21
177.3795817932
 31
0.0
  0
LINE
  5
FB
330
1F
100
AcDbEntity
  8
0
  6
Continuous
 62
     1
370
    25
100
AcDbLine
 10
332.9851958838
 20
57.9712522312
 30
0.0
 11
332.9851958838
 21
117.6754170122
 31
0.0
  0
LINE
  5
FC
330
1F
100
AcDbEntity
  8
0
  6
Continuous
 62
     1
370
    25
100
AcDbLine
 10
331.1503535733
 20
117.6754170122
 30
0.0
 11
331.1503535733
 21
176.1754170122
 31
0.0
  0
LINE
  5
FD
330
1F
100
AcDbEntity
  8
0
  6
Continuous
 62
     1
370
    25
100
AcDbLine
 10
331.1503535733
 20
59.1754170122
 30
0.0
 11
331.1503535733
 21
117.6754170122
 31
0.0
  0
LINE
  5
FE
330
1F
100
AcDbEntity
  8
0
  6
Continuous
 62
     7
370
    25
100
AcDbLine
 10
36.1701403815
 20
-119.8493208252
 30
0.0
 11
36.1701403815
 21
-217.5367668535
 31
0.0
  0
LINE
  5
FF
330
1F
100
AcDbEntity
  8
0
  6
Continuous
 62
     7
370
    25
100
AcDbLine
 10
236.1701403815
 20
-217.5367668535
 30
0.0
 11
236.1701403815
 21
-119.8493208252
 31
0.0
  0
ARC
  5
100
330
1F
100
AcDbEntity
  8
0
  6
Continuous
 62
     7
370
    25
100
AcDbCircle
 10
38.1701403815
 20
-119.8493208252
 30
0.0
 40
2.000000000000021
100
AcDbArc
 50
113.448062578
 51
180.0
  0
ARC
  5
101
330
1F
100
AcDbEntity
  8
0
  6
Continuous
 62
     7
370
    25
100
AcDbCircle
 10
234.1701403815
 20
-119.8493208252
 30
0.0
 40
2.000000000000007
100
AcDbArc
 50
0.0
 51
66.551937422
  0
LINE
  5
102
330
1F
100
AcDbEntity
  8
0
  6
Continuous
 62
     7
370
    25
100
AcDbLine
 10
234.9659756005
 20
-118.0144785147
 30
0.0
 11
195.8743051625
 21
-101.0590551922
 31
0.0
  0
LINE
  5
103
330
1F
100
AcDbEntity
  8
0
  6
Continuous
 62
     7
370
    25
100
AcDbLine
 10
76.4659756005
 20
-101.0590551922
 30
0.0
 11
37.3743051625
 21
-118.0144785147
 31
0.0
  0
ARC
  5
104
330
1F
100
AcDbEntity
  8
0
  6
Continuous
 62
     7
370
    25
100
AcDbCircle
 10
75.6701403815
 20
-99.2242128818
 30
0.0
 40
2.000000000000007
100
AcDbArc
 50
293.448062578
 51
0.0
  0
ARC
  5
105
330
1F
100
AcDbEntity
  8
0
  6
Continuous
 62
     7
370
    25
100
AcDbCircle
 10
196.6701403815
 20
-99.2242128818
 30
0.0
 40
2.000000000000007
100
AcDbArc
 50
180.0
 51
246.551937422
  0
LINE
  5
106
330
1F
100
AcDbEntity
  8
0
  6
Continuous
 62
     7
370
    25
100
AcDbLine
 10
77.6701403815
 20
-25.5367668535
 30
0.0
 11
77.6701403815
 21
-99.2242128818
 31
0.0
  0
LINE
  5
107
330
1F
100
AcDbEntity
  8
0
  6
Continuous
 62
     7
370
    25
100
AcDbLine
 10
194.6701403815
 20
-99.2242128818
 30
0.0
 11
194.6701403815
 21
-25.5367668535
 31
0.0
  0
LINE
  5
108
330
1F
100
AcDbEntity
  8
0
  6
Continuous
 62
     7
370
    25
100
AcDbLine
 10
36.1701403815
 20
-217.5367668535
 30
0.0
 11
236.1701403815
 21
-217.5367668535
 31
0.0
  0
LINE
  5
109
330
1F
100
AcDbEntity
  8
0
  6
Continuous
 62
     7
370
    25
100
AcDbLine
 10
77.6701403815
 20
-25.5367668535
 30
0.0
 11
194.6701403815
 21
-25.5367668535
 31
0.0
  0
LINE
  5
10A
330
1F
100
AcDbEntity
  8
0
  6
Continuous
 62
     1
370
    25
100
AcDbLine
 10
36.1701403815
 20
-119.8493208252
 30
0.0
 11
236.1701403815
 21
-119.8493208252
 31
0.0
  0
LINE
  5
10B
330
1F
100
AcDbEntity
  8
0
  6
Continuous
 62
     1
370
    25
100
AcDbLine
 10
37.3743051625
 20
-118.0144785147
 30
0.0
 11
234.9659756005
 21
-118.0144785147
 31
0.0
  0
LINE
  5
10C
330
1F
100
AcDbEntity
  8
0
  6
Continuous
 62
     1
370
    25
100
AcDbLine
 10
76.4659756005
 20
-101.0590551922
 30
0.0
 11
195.8743051625
 21
-101.0590551922
 31
0.0
  0
LINE
  5
10D
330
1F
100
AcDbEntity
  8
0
  6
Continuous
 62
     1
370
    25
100
AcDbLine
 10
77.6701403815
 20
-99.2242128818
 30
0.0
 11
194.6701403815
 21
-99.2242128818
 31
0.0
  0
LINE
  5
10E
330
1F
100
AcDbEntity
  8
0
  6
Continuous
 62
     7
370
    25
100
AcDbLine
 10
452.7199180234
 20
-62.9038119488
 30
0.0
 11
383.6444625
 21
-23.0274002684
 31
0.0
  0
LINE
  5
10F
330
1F
100
AcDbEntity
  8
0
  6
Continuous
 62
     7
370
    25
100
AcDbLine
 10
283.6525892364
 20
-196.2371727445
 30
0.0
 11
352.7280447598
 21
-236.1135844249
 31
0.0
  0
LINE
  5
110
330
1F
100
AcDbEntity
  8
0
  6
Continuous
 62
     7
370
    25
100
AcDbLine
 10
332.3053801177
 20
-194.4523310111
 30
0.0
 11
332.3053801177
 21
-205.1670306969
 31
0.0
  0
LINE
  5
111
330
1F
100
AcDbEntity
  8
0
  6
Continuous
 62
     7
370
    25
100
AcDbLine
 10
346.3053801177
 20
-205.1670306969
 30
0.0
 11
346.3053801177
 21
-194.4515155842
 31
0.0
  0
SPLINE
  5
112
330
1F
100
AcDbEntity
  8
0
  6
Continuous
 62
     7
370
    25
100
AcDbSpline
210
0.0
220
0.0
230
1.0
 70
     8
 71
     3
 72
    72
 73
    68
 74
     0
 42
0.00000001
 43
0.00000001
 40
0.0
 40
0.0
 40
0.0
 40
0.0
 40
0.0130028185630421
 40
0.0283880273448594
 40
0.0437979965516782
 40
0.0592401244795978
 40
0.0747188918906716
 40
0.090235834521874
 40
0.1057898837333642
 40
0.1213779546123548
 40
0.1369956380847011
 40
0.1526378687250092
 40
0.1682994800889705
 40
0.1839756066973583
 40
0.1996619316021833
 40
0.2153548035850431
 40
0.2310512584380259
 40
0.2467488569483683
 40
0.2624455065237161
 40
0.2781400908772362
 40
0.2938318633996071
 40
0.3095203704465617
 40
0.3252053858440966
 40
0.3408868569040262
 40
0.3565648610993689
 40
0.3722395720319517
 40
0.3879112331836393
 40
0.4035801380069077
 40
0.4192466150710648
 40
0.4349110171733579
 40
0.4505737135140901
 40
0.4662350842045737
 40
0.4818955165193984
 40
0.4975554024188417
 40
0.5132151369547493
 40
0.5288750809997199
 40
0.5445355367841047
 40
0.5601969035624417
 40
0.5758595805274371
 40
0.5915239654724795
 40
0.6071904527271654
 40
0.6228594299853574
 40
0.638531273583038
 40
0.6542063416768418
 40
0.6698849646384296
 40
0.6855674318141763
 40
0.7012539736070427
 40
0.7169447376288417
 40
0.7326397574712684
 40
0.7483389125011511
 40
0.764041877084806
 40
0.7797480579288427
 40
0.7954565190063586
 40
0.8111656874586882
 40
0.8268731290998835
 40
0.8425761201081473
 40
0.8582712253767589
 40
0.8739542779165208
 40
0.8896204393730699
 40
0.9052643798329293
 40
0.9208806113068836
 40
0.9364639910295419
 40
0.9520103747730393
 40
0.9675173500141866
 40
0.9829849270202624
 40
0.9984160336243719
 40
1.0
 40
1.0
 40
1.0
 40
1.0
 10
356.9652949452885
 20
-238.1749419104488
 30
0.0
 10
357.686507167146
 20
-238.4601225183602
 30
0.0
 10
359.26107287967
 20
-239.0827348278654
 30
0.0
 10
361.8016699634927
 20
-239.8091603523214
 30
0.0
 10
364.5576799718571
 20
-240.399900258477
 30
0.0
 10
367.3989586283628
 20
-240.78926441728
 30
0.0
 10
370.3165636839454
 20
-240.9827528421685
 30
0.0
 10
373.3053973718126
 20
-240.9776741121494
 30
0.0
 10
376.3588156545698
 20
-240.7740534001063
 30
0.0
 10
379.470116700869
 20
-240.3718123671585
 30
0.0
 10
382.6322260878225
 20
-239.7716043535245
 30
0.0
 10
385.8378902603624
 20
-238.9746240091806
 30
0.0
 10
389.0797347698613
 20
-237.9826538532867
 30
0.0
 10
392.350344452664
 20
-236.7980188196789
 30
0.0
 10
395.6423152936565
 20
-235.4235497036517
 30
0.0
 10
398.9482903477043
 20
-233.8625393466841
 30
0.0
 10
402.2609712347328
 20
-232.1187080462271
 30
0.0
 10
405.5731118247401
 20
-230.1961818557015
 30
0.0
 10
408.8775564079937
 20
-228.0994508974446
 30
0.0
 10
412.167247188166
 20
-225.8333398608548
 30
0.0
 10
415.4352377194621
 20
-223.402975381007
 30
0.0
 10
418.6746574824471
 20
-220.8137956459293
 30
0.0
 10
421.8787151184795
 20
-218.0715403654926
 30
0.0
 10
425.0407037522336
 20
-215.1822414316446
 30
0.0
 10
428.1540082171577
 20
-212.1522135958044
 30
0.0
 10
431.2121138885191
 20
-208.988044704768
 30
0.0
 10
434.2086167878805
 20
-205.6965852098282
 30
0.0
 10
437.1372346295635
 20
-202.2849367911576
 30
0.0
 10
439.9918185086549
 20
-198.7604400297453
 30
0.0
 10
442.7663649682599
 20
-195.1306611203883
 30
0.0
 10
445.4550282228541
 20
-191.4033776592804
 30
0.0
 10
448.052132350609
 20
-187.5865635650163
 30
0.0
 10
450.5521832987704
 20
-183.6883732072008
 30
0.0
 10
452.949880571944
 20
-179.7171248262865
 30
0.0
 10
455.2401267280369
 20
-175.681286446187
 30
0.0
 10
457.4180358191371
 20
-171.5894636072602
 30
0.0
 10
459.4789491344201
 20
-167.4503731558862
 30
0.0
 10
461.4184462103933
 20
-163.2728211254608
 30
0.0
 10
463.2323552275694
 20
-159.0656782080793
 30
0.0
 10
464.9167565150939
 20
-154.8378692672593
 30
0.0
 10
466.4679896959303
 20
-150.598354476939
 30
0.0
 10
467.8826599817891
 20
-146.3561105994202
 30
0.0
 10
469.1576435962437
 20
-142.1201125636807
 30
0.0
 10
470.2900923260673
 20
-137.8993155249078
 30
0.0
 10
471.2774372289321
 20
-133.7026376130428
 30
0.0
 10
472.1173915661781
 20
-129.5389436074362
 30
0.0
 10
472.8079530865274
 20
-125.4170298047215
 30
0.0
 10
473.3474058659164
 20
-121.3456103728135
 30
0.0
 10
473.7343220157667
 20
-117.3333054973901
 30
0.0
 10
473.9675637123783
 20
-113.3886316145574
 30
0.0
 10
474.0462861750292
 20
-109.5199939644421
 30
0.0
 10
473.9699424280244
 20
-105.7356815623825
 30
0.0
 10
473.7382919124502
 20
-102.043880706247
 30
0.0
 10
473.3514187023551
 20
-98.45269722298957
 30
0.0
 10
472.8097545936729
 20
-94.97012449261678
 30
0.0
 10
472.1141028048451
 20
-91.60402370237559
 30
0.0
 10
471.2656603952017
 20
-88.36209417520698
 30
0.0
 10
470.2660597859685
 20
-85.25187549171379
 30
0.0
 10
469.1173970475009
 20
-82.2807264110538
 30
0.0
 10
467.8223003718792
 20
-79.45571722123383
 30
0.0
 10
466.3838191759683
 20
-76.78375751774132
 30
0.0
 10
464.8059084204211
 20
-74.27076087904797
 30
0.0
 10
463.0915787437179
 20
-71.92432933398753
 30
0.0
 10
461.2495689164362
 20
-69.7433360843418
 30
0.0
 10
459.2691573005569
 20
-67.75629020887612
 30
0.0
 10
457.8268114891112
 20
-66.43884220098533
 30
0.0
 10
457.0123931263398
 20
-65.83796745182792
 30
0.0
 10
456.9365773303182
 20
-65.78203084786726
 30
0.0
  0
LINE
  5
113
330
1F
100
AcDbEntity
  8
0
  6
Continuous
 62
     7
370
    25
100
AcDbLine
 10
498.6606507856
 20
-137.3436067922
 30
0.0
 11
473.1545530014
 21
-122.6192499581
 31
0.0
  0
LINE
  5
114
330
1F
100
AcDbEntity
  8
0
  6
Continuous
 62
     7
370
    25
100
AcDbLine
 10
414.6616006741
 20
-223.9482908845
 30
0.0
 11
440.1654049264
 21
-238.6713236907
 31
0.0
  0
LINE
  5
115
330
1F
100
AcDbEntity
  8
0
  6
Continuous
 62
     7
370
    25
100
AcDbLine
 10
456.7561736065
 20
-232.3388516471
 30
0.0
 11
456.7561736065
 21
-241.8996896262
 31
0.0
  0
LINE
  5
116
330
1F
100
AcDbEntity
  8
0
  6
Continuous
 62
     7
370
    25
100
AcDbLine
 10
470.7561736065
 20
-241.8996896262
 30
0.0
 11
470.7561736065
 21
-232.3374098481
 31
0.0
  0
ARC
  5
117
330
1F
100
AcDbEntity
  8
0
  6
Continuous
 62
     7
370
    25
100
AcDbCircle
 10
435.9618084392
 20
-91.9247749923
 30
0.0
 40
33.51194612090298
100
AcDbArc
 50
51.5930667786
 51
59.9957819735
  0
LWPOLYLINE
  5
118
330
1F
100
AcDbEntity
  8
0
  6
Continuous
 62
     7
370
    25
100
AcDbPolyline
 90
        3
 70
   128
 43
0.0
 10
356.7977968379
 20
-238.1083427552
 10
355.2375922977
 20
-237.4236904486
 10
352.7280447598
 20
-236.1135844249
  0
LWPOLYLINE
  5
119
330
1F
100
AcDbEntity
  8
0
  6
Continuous
 62
     7
370
    25
100
AcDbPolyline
 90
      129
 70
   128
 43
0.0
 10
262.9378477495
 20
-150.4526920976
 10
263.0230218581
 20
-146.3969462681
 10
263.2783389919
 20
-142.252631153
 10
263.7031840695
 20
-138.0297307704
 10
264.2965336021
 20
-133.7384184573
 10
265.0569581585
 20
-129.3890323609
 10
265.9826258095
 20
-124.9920505332
 10
267.0713065405
 20
-120.5580656887
 10
268.3203776244
 20
-116.0977596851
 10
269.7268299394
 20
-111.6218777903
 10
271.2872752188
 20
-107.1412027958
 10
272.9979542133
 20
-102.6665290402
 10
274.8547457472
 20
-98.2086364044
 10
276.8531766472
 20
-93.7782643424
 10
278.9884325181
 20
-89.3860860083
 10
281.2553693416
 20
-85.0426825447
 10
283.6485258682
 20
-80.7585175908
 10
286.1621367743
 20
-76.5439120752
 10
288.790146551
 20
-72.4090193518
 10
291.5262240927
 20
-68.3638007394
 10
294.3637779488
 20
-64.4180015239
 10
297.2959722036
 20
-60.5811274812
 10
300.3157429443
 20
-56.862421977
 10
303.4158152786
 20
-53.2708436985
 10
306.5887208609
 20
-49.8150450725
 10
309.8268158835
 20
-46.5033514204
 10
313.1222994921
 20
-43.3437409024
 10
316.4672325778
 20
-40.3438252969
 10
319.853556904
 20
-37.5108316635
 10
323.2731145188
 20
-34.8515849318
 10
326.7176674082
 20
-32.3724914603
 10
330.1789173428
 20
-30.0795236022
 10
333.6485258682
 20
-27.9782053179
 10
337.1181343936
 20
-26.0735988673
 10
340.5793843281
 20
-24.370292614
 10
344.0239372176
 20
-22.8723899721
 10
347.4434948323
 20
-21.5834995203
 10
350.8298191585
 20
-20.5067263084
 10
354.1747522443
 20
-19.6446643776
 10
357.4702358528
 20
-18.9993905104
 10
360.7083308755
 20
-18.5724592282
 10
363.8812364577
 20
-18.3648990458
 10
366.9813087921
 20
-18.3772099939
 10
370.0010795327
 20
-18.6093624143
 10
372.9332737875
 20
-19.0607970315
 10
375.7708276437
 20
-19.7304262999
 10
378.5069051853
 20
-20.6166370241
 10
381.1349149621
 20
-21.7172942448
 10
383.6485258682
 20
-23.0297463822
 10
386.0416823948
 20
-24.5508316243
 10
388.3086192183
 20
-26.2768855434
 10
390.4438750892
 20
-28.2037499246
 10
392.4423059891
 20
-30.3267827826
 10
394.2990975231
 20
-32.6408695455
 10
396.0097765175
 20
-35.1404353755
 10
397.5702217969
 20
-37.8194585996
 10
398.976674112
 20
-40.6714852162
 10
400.2257451959
 20
-43.6896444433
 10
401.3144259269
 20
-46.866665271
 10
402.2400935779
 20
-50.194893978
 10
403.0005181343
 20
-53.6663125696
 10
403.5938676668
 20
-57.2725580945
 10
404.0187127445
 20
-61.0049427913
 10
404.2740298783
 20
-64.8544750183
 10
404.3592039868
 20
-68.8118809153
 10
404.2740298783
 20
-72.8676267449
 10
404.0187127445
 20
-77.01194186
 10
403.5938676668
 20
-81.2348422425
 10
403.0005181343
 20
-85.5261545556
 10
402.2400935779
 20
-89.875540652
 10
401.3144259269
 20
-94.2725224797
 10
400.2257451959
 20
-98.7065073243
 10
398.976674112
 20
-103.1668133279
 10
397.5702217969
 20
-107.6426952227
 10
396.0097765175
 20
-112.1233702171
 10
394.2990975231
 20
-116.5980439728
 10
392.4423059891
 20
-121.0559366085
 10
390.4438750892
 20
-125.4863086706
 10
388.3086192183
 20
-129.8784870046
 10
386.0416823948
 20
-134.2218904683
 10
383.6485258682
 20
-138.5060554222
 10
381.1349149621
 20
-142.7206609378
 10
378.5069051853
 20
-146.8555536611
 10
375.7708276437
 20
-150.9007722735
 10
372.9332737875
 20
-154.846571489
 10
370.0010795327
 20
-158.6834455317
 10
366.9813087921
 20
-162.4021510359
 10
363.8812364577
 20
-165.9937293144
 10
360.7083308755
 20
-169.4495279405
 10
357.4702358528
 20
-172.7612215925
 10
354.1747522443
 20
-175.9208321106
 10
350.8298191585
 20
-178.920747716
 10
347.4434948323
 20
-181.7537413495
 10
344.0239372176
 20
-184.4129880811
 10
340.5793843281
 20
-186.8920815527
 10
337.1181343936
 20
-189.1850494108
 10
333.6485258682
 20
-191.286367695
 10
330.1789173428
 20
-193.1909741457
 10
326.7176674082
 20
-194.8942803989
 10
323.2731145188
 20
-196.3921830408
 10
319.853556904
 20
-197.6810734927
 10
316.4672325778
 20
-198.7578467045
 10
313.1222994921
 20
-199.6199086354
 10
309.8268158835
 20
-200.2651825026
 10
306.5887208609
 20
-200.6921137848
 10
303.4158152786
 20
-200.8996739672
 10
300.3157429443
 20
-200.8873630191
 10
297.2959722036
 20
-200.6552105987
 10
294.3637779488
 20
-200.2037759815
 10
291.5262240927
 20
-199.534146713
 10
288.790146551
 20
-198.6479359888
 10
286.1621367743
 20
-197.5472787682
 10
283.6485258682
 20
-196.2348266307
 10
281.2553693415
 20
-194.7137413887
 10
278.9884325181
 20
-192.9876874695
 10
276.8531766472
 20
-191.0608230884
 10
274.8547457472
 20
-188.9377902303
 10
272.9979542133
 20
-186.6237034674
 10
271.2872752188
 20
-184.1241376374
 10
269.7268299394
 20
-181.4451144134
 10
268.3203776244
 20
-178.5930877968
 10
267.0713065405
 20
-175.5749285697
 10
265.9826258095
 20
-172.3979077419
 10
265.0569581585
 20
-169.069679035
 10
264.2965336021
 20
-165.5982604434
 10
263.7031840695
 20
-161.9920149185
 10
263.2783389919
 20
-158.2596302217
 10
263.0230218581
 20
-154.4100979946
 10
262.9378477495
 20
-150.4526920976
  0
SPLINE
  5
11A
330
1F
100
AcDbEntity
  8
0
  6
Continuous
 62
     7
370
    25
100
AcDbSpline
210
0.0
220
0.0
230
1.0
 70
     8
 71
     3
 72
    10
 73
     6
 74
     0
 42
0.00000001
 43
0.00000001
 40
0.0
 40
0.0
 40
0.0
 40
0.0
 40
0.4289650262655533
 40
0.8579047337171893
 40
1.0
 40
1.0
 40
1.0
 40
1.0
 10
334.3556326493665
 20
-191.6945717509586
 30
0.0
 10
333.8647862494318
 20
-192.0421378444703
 30
0.0
 10
332.8831224208022
 20
-192.7372495170912
 30
0.0
 10
332.2733555147997
 20
-193.7366544214518
 30
0.0
 10
332.3693180798431
 20
-194.3074189859744
 30
0.0
 10
332.3931972236087
 20
-194.4494469641387
 30
0.0
  0
SPLINE
  5
11B
330
1F
100
AcDbEntity
  8
0
  6
Continuous
 62
     7
370
    25
100
AcDbSpline
210
0.0
220
0.0
230
1.0
 70
     8
 71
     3
 72
    15
 73
    11
 74
     0
 42
0.00000001
 43
0.00000001
 40
0.0
 40
0.0
 40
0.0
 40
0.0
 40
0.0496957008965256
 40
0.1929708903627784
 40
0.3361143091189266
 40
0.4789514674950119
 40
0.6217863995194204
 40
0.7649258845969059
 40
0.9082021461603055
 40
1.0
 40
1.0
 40
1.0
 40
1.0
 10
346.2155515049348
 20
-194.4488591802483
 30
0.0
 10
346.2398367678311
 20
-194.2841428096973
 30
0.0
 10
346.3341376574303
 20
-193.6445409103553
 30
0.0
 10
345.6808957444837
 20
-192.5568846604762
 30
0.0
 10
344.3248322858697
 20
-191.4125057061801
 30
0.0
 10
342.353287395717
 20
-190.6458213141881
 30
0.0
 10
340.0522301275025
 20
-190.3333049976073
 30
0.0
 10
337.6703211566444
 20
-190.4946333563728
 30
0.0
 10
335.7041170789486
 20
-191.0034436351031
 30
0.0
 10
334.7343374274441
 20
-191.5004771704084
 30
0.0
 10
334.3556326493665
 20
-191.6945717509586
 30
0.0
  0
LWPOLYLINE
  5
11C
330
1F
100
AcDbEntity
  8
0
  6
Continuous
 62
     7
370
    25
100
AcDbPolyline
 90
      116
 70
   128
 43
0.0
 10
277.0799833733
 20
-142.2886109794
 10
277.1643947553
 20
-138.672629093
 10
277.4173769849
 20
-134.9699794105
 10
277.8381750635
 20
-131.1917120937
 10
278.4255331642
 20
-127.3491029774
 10
279.1776983797
 20
-123.4536199175
 10
280.0924259534
 20
-119.5168885664
 10
281.1669859786
 20
-115.5506576778
 10
282.3981715459
 20
-111.5667640434
 10
283.7823083136
 20
-107.5770971678
 10
285.3152654736
 20
-103.5935637849
 10
286.9924680793
 20
-99.6280523241
 10
288.8089106988
 20
-95.69239743
 10
290.7591723536
 20
-91.7983446438
 10
292.8374326962
 20
-87.9575153495
 10
295.037489381
 20
-84.1813720913
 10
297.3527765741
 20
-80.4811843647
 10
299.7763845486
 20
-76.8679949843
 10
302.3010803057
 20
-73.3525871273
 10
304.919329161
 20
-69.9454521525
 10
307.6233172309
 20
-66.6567582896
 10
310.4049747521
 20
-63.4963202938
 10
313.2560001653
 20
-60.4735701542
 10
316.1678848902
 20
-57.5975289452
 10
319.1319387183
 20
-54.8767799043
 10
322.139315748
 20
-52.3194428158
 10
325.1810407841
 20
-49.9331497789
 10
328.2480361238
 20
-47.7250224297
 10
331.3311486475
 20
-45.7016506883
 10
334.4211771355
 20
-43.869073091
 10
337.5088997286
 20
-42.2327587698
 10
340.5851014487
 20
-40.7975911297
 10
343.640601701
 20
-39.5678532749
 10
346.6662816718
 20
-38.5472152267
 10
349.6531115429
 20
-37.7387229701
 10
352.59217744
 20
-37.1447893636
 10
355.4747080352
 20
-36.7671869388
 10
358.2921007245
 20
-36.6070426095
 10
361.0359473005
 20
-36.6648343094
 10
363.6980590469
 20
-36.9403895655
 10
366.2704911757
 20
-37.4328860124
 10
368.7455665385
 20
-38.1408538472
 10
371.1158985376
 20
-39.0621802156
 10
373.3744131707
 20
-40.1941155177
 10
375.5143701425
 20
-41.5332816137
 10
377.5293829802
 20
-43.0756819054
 10
379.4134380936
 20
-44.8167132644
 10
381.1609127217
 20
-46.7511797686
 10
382.7665917135
 20
-48.8733082098
 10
384.2256830917
 20
-51.1767653225
 10
385.5338323542
 20
-53.6546766856
 10
386.6871354694
 20
-56.2996472374
 10
387.6821505276
 20
-59.1037833464
 10
388.5159080128
 20
-62.0587163682
 10
389.1859196648
 20
-65.1556276214
 10
389.6901859057
 20
-68.3852747056
 10
390.0272018067
 20
-71.7380190844
 10
390.1959615799
 20
-75.203854851
 10
390.1959615799
 20
-78.7724385892
 10
390.0272018067
 20
-82.4331202426
 10
389.6901859057
 20
-86.1749748983
 10
389.1859196648
 20
-89.9868353914
 10
388.5159080128
 20
-93.857325632
 10
387.6821505276
 20
-97.7748945559
 10
386.6871354694
 20
-101.7278505977
 10
385.5338323542
 20
-105.704396583
 10
384.2256830917
 20
-109.6926649357
 10
382.7665917135
 20
-113.6807530953
 10
381.1609127217
 20
-117.6567590395
 10
379.4134380936
 20
-121.6088168038
 10
377.5293829802
 20
-125.5251318944
 10
375.5143701425
 20
-129.394016488
 10
373.3744131707
 20
-133.2039243123
 10
371.1158985376
 20
-136.9434851049
 10
368.7455665385
 20
-140.6015385467
 10
366.2704911757
 20
-144.1671675683
 10
363.6980590469
 20
-147.6297309315
 10
361.0359473005
 20
-150.9788949863
 10
358.2921007245
 20
-154.2046645107
 10
355.4747080352
 20
-157.2974125406
 10
352.59217744
 20
-160.2479091005
 10
349.6531115429
 20
-163.0473487488
 10
346.6662816718
 20
-165.6873768575
 10
343.640601701
 20
-168.1601145449
 10
340.5851014487
 20
-170.4581821901
 10
337.5088997286
 20
-172.5747214559
 10
334.4211771355
 20
-174.5034157572
 10
331.3311486475
 20
-176.2385091123
 10
328.2480361238
 20
-177.7748233206
 10
325.1810407841
 20
-179.1077734166
 10
322.139315748
 20
-180.2333813535
 10
319.1319387183
 20
-181.1482878747
 10
316.1678848902
 20
-181.8497625396
 10
313.2560001653
 20
-182.3357118721
 10
310.4049747521
 20
-182.6046856083
 10
307.6233172309
 20
-182.6558810249
 10
304.919329161
 20
-182.4891453347
 10
302.3010803057
 20
-182.1049761425
 10
299.7763845486
 20
-181.5045199602
 10
297.3527765741
 20
-180.689568785
 10
295.037489381
 20
-179.6625547516
 10
292.8374326962
 20
-178.4265428734
 10
290.7591723536
 20
-176.9852218957
 10
288.8089106988
 20
-175.3428932867
 10
286.9924680793
 20
-173.5044584006
 10
285.3152654736
 20
-171.4754038497
 10
283.7823083136
 20
-169.2617851301
 10
282.3981715459
 20
-166.8702085501
 10
281.1669859786
 20
-164.3078115144
 10
280.0924259534
 20
-161.5822412226
 10
279.1776983797
 20
-158.7016318479
 10
278.4255331642
 20
-155.6745802607
 10
277.8381750635
 20
-152.5101203727
 10
277.4173769849
 20
-149.217696176
 10
277.1643947553
 20
-145.8071335585
 10
277.0799833733
 20
-142.2886109794
  0
LWPOLYLINE
  5
11D
330
1F
100
AcDbEntity
  8
0
  6
Continuous
 62
     7
370
    25
100
AcDbPolyline
 90
       34
 70
   128
 43
0.0
 10
334.3556326494
 20
-202.3096023055
 10
335.381826902
 20
-201.8204678802
 10
336.5498285905
 20
-201.4522869546
 10
337.8174230908
 20
-201.2183665465
 10
339.1387962348
 20
-201.1271611489
 10
340.4661901545
 20
-201.1819671625
 10
341.7516293749
 20
-201.3808037553
 10
342.9486547735
 20
-201.7164844546
 10
344.0140027336
 20
-202.1768768855
 10
344.9091688041
 20
-202.7453412658
 10
345.601799351
 20
-203.4013318119
 10
346.0668609017
 20
-204.1211393161
 10
346.2875449199
 20
-204.8787480599
 10
346.2558753104
 20
-205.6467760893
 10
345.9729966952
 20
-206.3974648702
 10
345.4491330446
 20
-207.1036825543
 10
344.7032181559
 20
-207.7399045943
 10
343.7622113365
 20
-208.2831362681
 10
342.6601230247
 20
-208.7137437677
 10
341.4367855636
 20
-209.016163816
 10
340.1364135563
 20
-209.1794661645
 10
338.8060058353
 20
-209.197748641
 10
337.493646802
 20
-209.070350469
 10
336.2467685311
 20
-208.8018761504
 10
335.1104364521
 20
-208.4020290467
 10
334.125720567
 20
-207.8852606739
 10
333.3282110735
 20
-207.2702483874
 10
332.7467320427
 20
-206.5792203337
 10
332.4022996416
 20
-205.8371520672
 10
332.3073625548
 20
-205.0708638683
 10
332.4653520559
 20
-204.3080513891
 10
332.8705579926
 20
-203.5762846602
 10
333.5083351667
 20
-202.9020116377
 10
334.3556326494
 20
-202.3096023055
  0
LWPOLYLINE
  5
11E
330
1F
100
AcDbEntity
  8
0
  6
Continuous
 62
     7
370
    25
100
AcDbPolyline
 90
       29
 70
   128
 43
0.0
 10
335.7698462117
 20
-203.1260104173
 10
336.6452197351
 20
-202.7230133182
 10
337.6539848079
 20
-202.4425694557
 10
338.7455577372
 20
-202.2987414562
 10
339.8652024982
 20
-202.2987414562
 10
340.9567754274
 20
-202.4425694557
 10
341.9655405002
 20
-202.7230133182
 10
342.8409140236
 20
-203.1260104173
 10
343.5390011138
 20
-203.6313527958
 10
344.0247967692
 20
-204.2137004767
 10
344.2739411671
 20
-204.8438521156
 10
344.2739411671
 20
-205.4902092781
 10
344.0247967692
 20
-206.120360917
 10
343.5390011138
 20
-206.7027085979
 10
342.8409140236
 20
-207.2080509764
 10
341.9655405002
 20
-207.6110480756
 10
340.9567754274
 20
-207.891491938
 10
339.8652024982
 20
-208.0353199375
 10
338.7455577372
 20
-208.0353199375
 10
337.6539848079
 20
-207.891491938
 10
336.6452197351
 20
-207.6110480756
 10
335.7698462117
 20
-207.2080509764
 10
335.0717591215
 20
-206.7027085979
 10
334.5859634661
 20
-206.120360917
 10
334.3368190682
 20
-205.4902092781
 10
334.3368190682
 20
-204.8438521156
 10
334.5859634661
 20
-204.2137004767
 10
335.0717591215
 20
-203.6313527958
 10
335.7698462117
 20
-203.1260104173
  0
LWPOLYLINE
  5
11F
330
1F
100
AcDbEntity
  8
0
  6
Continuous
 62
     7
370
    25
100
AcDbPolyline
 90
       38
 70
   128
 43
0.0
 10
498.6606507856
 20
-137.3436067922
 10
499.1280851138
 20
-137.6222159335
 10
500.9108084952
 20
-138.8598445192
 10
502.5641007396
 20
-140.2994312206
 10
504.0811681147
 20
-141.9350604672
 10
505.4557766652
 20
-143.7600111074
 10
506.6822778297
 20
-145.7667840277
 10
507.7556316518
 20
-147.9471329677
 10
508.6714274905
 20
-150.292098406
 10
509.4259021441
 20
-152.7920443765
 10
510.0159553146
 20
-155.436698065
 10
510.4391623468
 20
-158.2151920223
 10
510.6937841924
 20
-161.1161088206
 10
510.7787745554
 20
-164.1275279706
 10
510.6937841924
 20
-167.2370749052
 10
510.4391623468
 20
-170.4319718288
 10
510.0159553146
 20
-173.6990902248
 10
509.4259021441
 20
-177.0250048029
 10
508.6714274905
 20
-180.3960486667
 10
507.7556316518
 20
-183.7983694738
 10
506.6822778297
 20
-187.2179863583
 10
505.4557766652
 20
-190.6408473808
 10
504.0811681147
 20
-194.0528872713
 10
502.5641007396
 20
-197.4400852259
 10
500.9108084952
 20
-200.7885225217
 10
499.1280851138
 20
-204.0844397116
 10
497.2232561883
 20
-207.314293165
 10
495.2041490694
 20
-210.464810721
 10
493.0790607011
 20
-213.5230462275
 10
490.8567235276
 20
-216.4764327385
 10
488.5462696089
 20
-219.3128341556
 10
486.1571930957
 20
-222.0205950968
 10
483.699311216
 20
-224.5885887916
 10
481.1827239336
 20
-227.0062628032
 10
478.6177724454
 20
-229.2636823903
 10
476.0149966872
 20
-231.3515713317
 10
473.385092023
 20
-233.261350044
 10
470.7561736065
 20
-234.974533829
  0
ARC
  5
120
330
1F
100
AcDbEntity
  8
0
  6
Continuous
 62
     7
370
    25
100
AcDbCircle
 10
451.223077294
 20
-218.1085423224
 30
0.0
 40
23.34737877772033
100
AcDbArc
 50
241.7307789945
 51
283.708958115
  0
SPLINE
  5
121
330
1F
100
AcDbEntity
  8
0
  6
Continuous
 62
     7
370
    25
100
AcDbSpline
210
0.0
220
0.0
230
1.0
 70
     8
 71
     3
 72
    10
 73
     6
 74
     0
 42
0.00000001
 43
0.00000001
 40
0.0
 40
0.0
 40
0.0
 40
0.0
 40
0.4275877445447268
 40
0.8551025040229452
 40
0.9999999999999999
 40
0.9999999999999999
 40
0.9999999999999999
 40
0.9999999999999999
 10
458.8064261381991
 20
-229.6520418980983
 30
0.0
 10
458.3165982604268
 20
-229.9954919384076
 30
0.0
 10
457.3370261137336
 20
-230.682333395447
 30
0.0
 10
456.726550422934
 20
-231.6456131795892
 30
0.0
 10
456.820835418203
 20
-232.1965902981769
 30
0.0
 10
456.8447022372526
 20
-232.3360618137903
 30
0.0
  0
SPLINE
  5
122
330
1F
100
AcDbEntity
  8
0
  6
Continuous
 62
     7
370
    25
100
AcDbSpline
210
0.0
220
0.0
230
1.0
 70
     8
 71
     3
 72
    15
 73
    11
 74
     0
 42
0.00000001
 43
0.00000001
 40
0.0
 40
0.0
 40
0.0
 40
0.0
 40
0.0463412248899561
 40
0.1898344549931281
 40
0.3329698583255286
 40
0.4752005290238144
 40
0.6173960542828155
 40
0.7604744560175669
 40
0.903982698353053
 40
1.0
 40
1.0
 40
1.0
 40
1.0
 10
470.6697589169996
 20
-232.334477801298
 30
0.0
 10
470.6938031019461
 20
-232.1760173881821
 30
0.0
 10
470.7922988744664
 20
-231.5268924193604
 30
0.0
 10
470.1547506236252
 20
-230.4123287527765
 30
0.0
 10
468.8153450970692
 20
-229.2444401418473
 30
0.0
 10
466.8591771933575
 20
-228.4863698781729
 30
0.0
 10
464.5725071513348
 20
-228.2049905072017
 30
0.0
 10
462.1937971584918
 20
-228.4020040651212
 30
0.0
 10
460.1955158160538
 20
-228.938798249013
 30
0.0
 10
459.2039212549943
 20
-229.4479435795258
 30
0.0
 10
458.8064261381991
 20
-229.6520418980983
 30
0.0
  0
LWPOLYLINE
  5
123
330
1F
100
AcDbEntity
  8
0
  6
Continuous
 62
     7
370
    25
100
AcDbPolyline
 90
       34
 70
   128
 43
0.0
 10
458.8064261382
 20
-239.0422612348
 10
459.8326203908
 20
-238.5531268096
 10
461.0006220794
 20
-238.1849458839
 10
462.2682165796
 20
-237.9510254758
 10
463.5895897237
 20
-237.8598200782
 10
464.9169836433
 20
-237.9146260918
 10
466.2024228637
 20
-238.1134626846
 10
467.3994482623
 20
-238.4491433839
 10
468.4647962224
 20
-238.9095358148
 10
469.359962293
 20
-239.4780001951
 10
470.0525928399
 20
-240.1339907412
 10
470.5176543905
 20
-240.8537982454
 10
470.7383384088
 20
-241.6114069892
 10
470.7066687992
 20
-242.3794350186
 10
470.4237901841
 20
-243.1301237995
 10
469.8999265335
 20
-243.8363414836
 10
469.1540116447
 20
-244.4725635236
 10
468.2130048253
 20
-245.0157951975
 10
467.1109165135
 20
-245.446402697
 10
465.8875790524
 20
-245.7488227453
 10
464.5872070451
 20
-245.9121250938
 10
463.2567993241
 20
-245.9304075703
 10
461.9444402908
 20
-245.8030093983
 10
460.6975620199
 20
-245.5345350797
 10
459.5612299409
 20
-245.134687976
 10
458.5765140558
 20
-244.6179196032
 10
457.7790045624
 20
-244.0029073167
 10
457.1975255315
 20
-243.311879263
 10
456.8530931305
 20
-242.5698109965
 10
456.7581560437
 20
-241.8035227976
 10
456.9161455447
 20
-241.0407103184
 10
457.3213514814
 20
-240.3089435895
 10
457.9591286555
 20
-239.634670567
 10
458.8064261382
 20
-239.0422612348
  0
LWPOLYLINE
  5
124
330
1F
100
AcDbEntity
  8
0
  6
Continuous
 62
     7
370
    25
100
AcDbPolyline
 90
       29
 70
   128
 43
0.0
 10
460.2206397006
 20
-239.8586693466
 10
461.0960132239
 20
-239.4556722475
 10
462.1047782967
 20
-239.175228385
 10
463.196351226
 20
-239.0314003856
 10
464.315995987
 20
-239.0314003856
 10
465.4075689163
 20
-239.175228385
 10
466.4163339891
 20
-239.4556722475
 10
467.2917075124
 20
-239.8586693466
 10
467.9897946026
 20
-240.3640117251
 10
468.475590258
 20
-240.946359406
 10
468.724734656
 20
-241.5765110449
 10
468.724734656
 20
-242.2228682074
 10
468.475590258
 20
-242.8530198463
 10
467.9897946026
 20
-243.4353675272
 10
467.2917075124
 20
-243.9407099057
 10
466.4163339891
 20
-244.3437070049
 10
465.4075689163
 20
-244.6241508673
 10
464.315995987
 20
-244.7679788668
 10
463.196351226
 20
-244.7679788668
 10
462.1047782967
 20
-244.6241508673
 10
461.0960132239
 20
-244.3437070049
 10
460.2206397006
 20
-243.9407099057
 10
459.5225526104
 20
-243.4353675272
 10
459.036756955
 20
-242.8530198463
 10
458.787612557
 20
-242.2228682074
 10
458.787612557
 20
-241.5765110449
 10
459.036756955
 20
-240.946359406
 10
459.5225526104
 20
-240.3640117251
 10
460.2206397006
 20
-239.8586693466
  0
LWPOLYLINE
  5
125
330
1F
100
AcDbEntity
  8
0
  6
Continuous
 62
     1
370
    25
100
AcDbPolyline
 90
       63
 70
   128
 43
0.0
 10
456.7808572649
 20
-65.6642011448
 10
457.3840747417
 20
-66.1532972238
 10
459.5193306126
 20
-68.0801616049
 10
461.5177615126
 20
-70.203194463
 10
463.3745530465
 20
-72.5172812259
 10
465.0852320409
 20
-75.0168470559
 10
466.6456773203
 20
-77.69587028
 10
468.0521296354
 20
-80.5478968965
 10
469.3012007193
 20
-83.5660561237
 10
470.3898814503
 20
-86.7430769514
 10
471.3155491013
 20
-90.0713056583
 10
472.0759736577
 20
-93.54272425
 10
472.6693231902
 20
-97.1489697748
 10
473.0941682679
 20
-100.8813544716
 10
473.3494854017
 20
-104.7308866987
 10
473.4346595102
 20
-108.6882925957
 10
473.3494854017
 20
-112.7440384252
 10
473.0941682679
 20
-116.8883535403
 10
472.6693231902
 20
-121.1112539229
 10
472.0759736577
 20
-125.402566236
 10
471.3155491013
 20
-129.7519523324
 10
470.3898814503
 20
-134.1489341601
 10
469.3012007193
 20
-138.5829190046
 10
468.0521296354
 20
-143.0432250082
 10
466.6456773203
 20
-147.519106903
 10
465.0852320409
 20
-151.9997818975
 10
463.3745530465
 20
-156.4744556531
 10
461.5177615126
 20
-160.9323482889
 10
459.5193306126
 20
-165.362720351
 10
457.3840747417
 20
-169.754898685
 10
455.1171379182
 20
-174.0983021486
 10
452.7239813916
 20
-178.3824671026
 10
450.2103704855
 20
-182.5970726181
 10
447.5823607087
 20
-186.7319653415
 10
444.8462831671
 20
-190.7771839539
 10
442.0087293109
 20
-194.7229831694
 10
439.0765350562
 20
-198.5598572121
 10
436.0567643155
 20
-202.2785627163
 10
432.9566919811
 20
-205.8701409948
 10
429.7837863989
 20
-209.3259396208
 10
426.5456913762
 20
-212.6376332729
 10
423.2502077677
 20
-215.7972437909
 10
419.9052746819
 20
-218.7971593964
 10
416.5189503557
 20
-221.6301530298
 10
413.099392741
 20
-224.2893997615
 10
409.6548398515
 20
-226.768493233
 10
406.193589917
 20
-229.0614610911
 10
402.7239813916
 20
-231.1627793754
 10
399.2543728662
 20
-233.0673858261
 10
395.7931229316
 20
-234.7706920793
 10
392.3485700422
 20
-236.2685947212
 10
388.9290124274
 20
-237.5574851731
 10
385.5426881012
 20
-238.6342583849
 10
382.1977550155
 20
-239.4963203158
 10
378.9022714069
 20
-240.1415941829
 10
375.6641763843
 20
-240.5685254651
 10
372.491270802
 20
-240.7760856475
 10
369.3911984677
 20
-240.7637746995
 10
366.371427727
 20
-240.5316222791
 10
363.4392334722
 20
-240.0801876619
 10
360.6016796161
 20
-239.4105583934
 10
357.8656020745
 20
-238.5243476692
 10
356.7977968379
 20
-238.1083427552
  0
ARC
  5
126
330
1F
100
AcDbEntity
  8
0
  6
Continuous
 62
     1
370
    25
100
AcDbCircle
 10
476.0495542751
 20
-191.8386503941
 30
0.0
 40
130.9242985110896
100
AcDbArc
 50
132.0452655848
 51
167.9601109479
  0
ARC
  5
127
330
1F
100
AcDbEntity
  8
0
  6
Continuous
 62
     1
370
    25
100
AcDbCircle
 10
477.2333072006
 20
-192.5220164122
 30
0.0
 40
130.0785924952144
100
AcDbArc
 50
133.5805075959
 51
166.4248689368
  0
ENDSEC
  0
SECTION
  2
OBJECTS
  0
DICTIONARY
  5
C
330
0
100
AcDbDictionary
281
     1
  3
ACAD_GROUP
350
D
  3
ACAD_LAYOUT
350
1A
  3
ACAD_MLINESTYLE
350
17
  3
ACAD_PLOTSETTINGS
350
19
  3
ACAD_PLOTSTYLENAME
350
E
  3
ACAD_SCALELIST
350
47
  3
DWGPROPS
350
128
  0
DICTIONARY
  5
D
102
{ACAD_REACTORS
330
C
102
}
330
C
100
AcDbDictionary
281
     1
  0
DICTIONARY
  5
1A
102
{ACAD_REACTORS
330
C
102
}
330
C
100
AcDbDictionary
281
     1
  3
Layout1
350
1E
  3
Layout2
350
26
  3
Model
350
22
  0
DICTIONARY
  5
17
102
{ACAD_REACTORS
330
C
102
}
330
C
100
AcDbDictionary
281
     1
  3
Standard
350
18
  0
DICTIONARY
  5
19
102
{ACAD_REACTORS
330
C
102
}
330
C
100
AcDbDictionary
281
     1
  0
ACDBDICTIONARYWDFLT
  5
E
102
{ACAD_REACTORS
330
C
102
}
330
C
100
AcDbDictionary
281
     1
  3
Normal
350
F
100
AcDbDictionaryWithDefault
340
F
  0
DICTIONARY
  5
47
102
{ACAD_REACTORS
330
C
102
}
330
C
100
AcDbDictionary
281
     1
  3
A0
350
48
  3
A1
350
49
  3
A2
350
4A
  3
A3
350
4B
  3
A4
350
4C
  3
A5
350
4D
  3
A6
350
4E
  3
A7
350
4F
  3
A8
350
50
  3
A9
350
51
  3
B0
350
52
  3
B1
350
53
  3
B2
350
54
  3
B3
350
55
  3
B4
350
56
  3
B5
350
57
  3
B6
350
58
  3
B7
350
59
  3
B8
350
5A
  3
B9
350
5B
  3
C0
350
5C
  3
C1
350
5D
  3
C2
350
5E
  3
C3
350
5F
  3
C4
350
60
  3
C5
350
61
  3
C6
350
62
  3
C7
350
63
  3
C8
350
64
  3
C9
350
65
  3
D0
350
66
  3
D1
350
67
  3
D2
350
68
  0
XRECORD
  5
128
102
{ACAD_REACTORS
330
C
102
}
330
C
100
AcDbXrecord
280
     1
  1
DWGPROPS COOKIE
  2

  3

  4

  6

  7

  8
b.kav
  9

300
=
301
=
302
=
303
=
304
=
305
=
306
=
307
=
308
=
309
=
 40
0.0
 41
2460346.545842963
 42
2460346.545843148
  1

 90
        0
  0
LAYOUT
  5
1E
102
{ACAD_REACTORS
330
1A
102
}
330
1A
100
AcDbPlotSettings
  1

  2
none_device
  4

  6

 40
0.0
 41
0.0
 42
0.0
 43
0.0
 44
0.0
 45
0.0
 46
0.0
 47
0.0
 48
0.0
 49
0.0
140
0.0
141
0.0
142
1.0
143
1.0
 70
   688
 72
     1
 73
     0
 74
     5
  7

 75
    16
147
1.0
148
0.0
149
0.0
100
AcDbLayout
  1
Layout1
 70
     1
 71
     1
 10
0.0
 20
0.0
 11
420.0
 21
297.0
 12
0.0
 22
0.0
 32
0.0
 14
1.0000000000E+20
 24
1.0000000000E+20
 34
1.0000000000E+20
 15
-1.0000000000E+20
 25
-1.0000000000E+20
 35
-1.0000000000E+20
146
0.0
 13
0.0
 23
0.0
 33
0.0
 16
1.0
 26
0.0
 36
0.0
 17
0.0
 27
1.0
 37
0.0
 76
     0
330
1B
  0
LAYOUT
  5
26
102
{ACAD_REACTORS
330
1A
102
}
330
1A
100
AcDbPlotSettings
  1

  2
none_device
  4

  6

 40
0.0
 41
0.0
 42
0.0
 43
0.0
 44
0.0
 45
0.0
 46
0.0
 47
0.0
 48
0.0
 49
0.0
140
0.0
141
0.0
142
1.0
143
1.0
 70
   688
 72
     1
 73
     0
 74
     5
  7

 75
    16
147
1.0
148
0.0
149
0.0
100
AcDbLayout
  1
Layout2
 70
     1
 71
     2
 10
0.0
 20
0.0
 11
0.0
 21
0.0
 12
0.0
 22
0.0
 32
0.0
 14
0.0
 24
0.0
 34
0.0
 15
0.0
 25
0.0
 35
0.0
146
0.0
 13
0.0
 23
0.0
 33
0.0
 16
1.0
 26
0.0
 36
0.0
 17
0.0
 27
1.0
 37
0.0
 76
     0
330
23
  0
LAYOUT
  5
22
102
{ACAD_REACTORS
330
1A
102
}
330
1A
100
AcDbPlotSettings
  1

  2
none_device
  4
Letter_(8.50_x_11.00_Inches)
  6

 40
6.35
 41
6.35
 42
6.35000508
 43
6.35000508
 44
215.9
 45
279.4
 46
0.0
 47
0.0
 48
0.0
 49
0.0
140
0.0
141
0.0
142
1.0
143
1.0
 70
  1712
 72
     1
 73
     0
 74
     0
  7

 75
     0
147
1.0
148
0.0
149
0.0
100
AcDbLayout
  1
Model
 70
     1
 71
     0
 10
0.0
 20
0.0
 11
279.4
 21
215.9
 12
0.0
 22
0.0
 32
0.0
 14
0.0
 24
0.0
 34
0.0
 15
279.4
 25
215.9
 35
0.0
146
0.0
 13
0.0
 23
0.0
 33
0.0
 16
1.0
 26
0.0
 36
0.0
 17
0.0
 27
1.0
 37
0.0
 76
     0
330
1F
331
29
  0
MLINESTYLE
  5
18
102
{ACAD_REACTORS
330
17
102
}
330
17
100
AcDbMlineStyle
  2
Standard
 70
     0
  3

 62
   256
 51
90.0
 52
90.0
 71
     2
 49
0.5
 62
   256
  6
BYLAYER
 49
-0.5
 62
   256
  6
BYLAYER
  0
ACDBPLACEHOLDER
  5
F
102
{ACAD_REACTORS
330
E
102
}
330
E
  0
SCALE
  5
48
102
{ACAD_REACTORS
330
47
102
}
330
47
100
AcDbScale
 70
     0
300
1:1
140
1.0
141
1.0
290
     1
  0
SCALE
  5
49
102
{ACAD_REACTORS
330
47
102
}
330
47
100
AcDbScale
 70
     0
300
1:2
140
1.0
141
2.0
290
     0
  0
SCALE
  5
4A
102
{ACAD_REACTORS
330
47
102
}
330
47
100
AcDbScale
 70
     0
300
1:4
140
1.0
141
4.0
290
     0
  0
SCALE
  5
4B
102
{ACAD_REACTORS
330
47
102
}
330
47
100
AcDbScale
 70
     0
300
1:5
140
1.0
141
5.0
290
     0
  0
SCALE
  5
4C
102
{ACAD_REACTORS
330
47
102
}
330
47
100
AcDbScale
 70
     0
300
1:8
140
1.0
141
8.0
290
     0
  0
SCALE
  5
4D
102
{ACAD_REACTORS
330
47
102
}
330
47
100
AcDbScale
 70
     0
300
1:10
140
1.0
141
10.0
290
     0
  0
SCALE
  5
4E
102
{ACAD_REACTORS
330
47
102
}
330
47
100
AcDbScale
 70
     0
300
1:16
140
1.0
141
16.0
290
     0
  0
SCALE
  5
4F
102
{ACAD_REACTORS
330
47
102
}
330
47
100
AcDbScale
 70
     0
300
1:20
140
1.0
141
20.0
290
     0
  0
SCALE
  5
50
102
{ACAD_REACTORS
330
47
102
}
330
47
100
AcDbScale
 70
     0
300
1:30
140
1.0
141
30.0
290
     0
  0
SCALE
  5
51
102
{ACAD_REACTORS
330
47
102
}
330
47
100
AcDbScale
 70
     0
300
1:40
140
1.0
141
40.0
290
     0
  0
SCALE
  5
52
102
{ACAD_REACTORS
330
47
102
}
330
47
100
AcDbScale
 70
     0
300
1:50
140
1.0
141
50.0
290
     0
  0
SCALE
  5
53
102
{ACAD_REACTORS
330
47
102
}
330
47
100
AcDbScale
 70
     0
300
1:100
140
1.0
141
100.0
290
     0
  0
SCALE
  5
54
102
{ACAD_REACTORS
330
47
102
}
330
47
100
AcDbScale
 70
     0
300
2:1
140
2.0
141
1.0
290
     0
  0
SCALE
  5
55
102
{ACAD_REACTORS
330
47
102
}
330
47
100
AcDbScale
 70
     0
300
4:1
140
4.0
141
1.0
290
     0
  0
SCALE
  5
56
102
{ACAD_REACTORS
330
47
102
}
330
47
100
AcDbScale
 70
     0
300
8:1
140
8.0
141
1.0
290
     0
  0
SCALE
  5
57
102
{ACAD_REACTORS
330
47
102
}
330
47
100
AcDbScale
 70
     0
300
10:1
140
10.0
141
1.0
290
     0
  0
SCALE
  5
58
102
{ACAD_REACTORS
330
47
102
}
330
47
100
AcDbScale
 70
     0
300
100:1
140
100.0
141
1.0
290
     0
  0
SCALE
  5
59
102
{ACAD_REACTORS
330
47
102
}
330
47
100
AcDbScale
 70
     0
300
1/128" = 1'-0"
140
0.0078125
141
12.0
290
     0
  0
SCALE
  5
5A
102
{ACAD_REACTORS
330
47
102
}
330
47
100
AcDbScale
 70
     0
300
1/64" = 1'-0"
140
0.015625
141
12.0
290
     0
  0
SCALE
  5
5B
102
{ACAD_REACTORS
330
47
102
}
330
47
100
AcDbScale
 70
     0
300
1/32" = 1'-0"
140
0.03125
141
12.0
290
     0
  0
SCALE
  5
5C
102
{ACAD_REACTORS
330
47
102
}
330
47
100
AcDbScale
 70
     0
300
1/16" = 1'-0"
140
0.0625
141
12.0
290
     0
  0
SCALE
  5
5D
102
{ACAD_REACTORS
330
47
102
}
330
47
100
AcDbScale
 70
     0
300
3/32" = 1'-0"
140
0.09375
141
12.0
290
     0
  0
SCALE
  5
5E
102
{ACAD_REACTORS
330
47
102
}
330
47
100
AcDbScale
 70
     0
300
1/8" = 1'-0"
140
0.125
141
12.0
290
     0
  0
SCALE
  5
5F
102
{ACAD_REACTORS
330
47
102
}
330
47
100
AcDbScale
 70
     0
300
3/16" = 1'-0"
140
0.1875
141
12.0
290
     0
  0
SCALE
  5
60
102
{ACAD_REACTORS
330
47
102
}
330
47
100
AcDbScale
 70
     0
300
1/4" = 1'-0"
140
0.25
141
12.0
290
     0
  0
SCALE
  5
61
102
{ACAD_REACTORS
330
47
102
}
330
47
100
AcDbScale
 70
     0
300
3/8" = 1'-0"
140
0.375
141
12.0
290
     0
  0
SCALE
  5
62
102
{ACAD_REACTORS
330
47
102
}
330
47
100
AcDbScale
 70
     0
300
1/2" = 1'-0"
140
0.5
141
12.0
290
     0
  0
SCALE
  5
63
102
{ACAD_REACTORS
330
47
102
}
330
47
100
AcDbScale
 70
     0
300
3/4" = 1'-0"
140
0.75
141
12.0
290
     0
  0
SCALE
  5
64
102
{ACAD_REACTORS
330
47
102
}
330
47
100
AcDbScale
 70
     0
300
1" = 1'-0"
140
1.0
141
12.0
290
     0
  0
SCALE
  5
65
102
{ACAD_REACTORS
330
47
102
}
330
47
100
AcDbScale
 70
     0
300
1-1/2" = 1'-0"
140
1.5
141
12.0
290
     0
  0
SCALE
  5
66
102
{ACAD_REACTORS
330
47
102
}
330
47
100
AcDbScale
 70
     0
300
3" = 1'-0"
140
3.0
141
12.0
290
     0
  0
SCALE
  5
67
102
{ACAD_REACTORS
330
47
102
}
330
47
100
AcDbScale
 70
     0
300
6" = 1'-0"
140
6.0
141
12.0
290
     0
  0
SCALE
  5
68
102
{ACAD_REACTORS
330
47
102
}
330
47
100
AcDbScale
 70
     0
300
1'-0" = 1'-0"
140
12.0
141
12.0
290
     0
  0
ENDSEC
  0
EOF
